Suffer Me - Grip Chords & Tabs

 

Grip Chords & Tabs

Suffer Me Chords & Tabs

Version: 1 Type: Tab 0 ratings
1 star 2 stars 3 stars 4 stars 5 stars
comments

Grip Tab

   
Song: Grip
Artist: suffer me


Note: Use a flanger style effect to get it to sound perfect, Capo Fret 4


[-----------------------------------------------------------------------]


Verse 1:
	Am			Em
e ---------------------------------------------------
B ------1---------0h1-0-----------------0------------
G ----2---2-----2-----------------0-------0---0------
D --2---------2-----------------2---2-------2--------
A ----------------------------2----------------------
E ---------------------------------------------------

Forever can you hear the breaking
Just your scent could keep me
Begging at your doorstep
On this mat of pain
I can feel the cold drift up this stairway
I can see the drips of pain flow down these walls
I can't ever go back
I can't paper over a memory so strong
This free expression on your face


[-----------------------------------------------------------------------]


Chorus:
Am		Em
I've always needed to be where you are
Am		Em
I can see you looking out your window
Am		Em
You are looking up but you can't see
Am		Em
This pain I feel each day infront of you
Am		Em
I'm holding your gaze and can't let go
Am		Em
But you can't get a grip on mine


[-----------------------------------------------------------------------]


Verse 2:
	Am			Em
e ---------------------------------------------------
B ------1---------0h1-0-----------------0------------
G ----2---2-----2-----------------0-------0---0------
D --2---------2-----------------2---2-------2--------
A ----------------------------2----------------------
E ---------------------------------------------------
[ Tab from: http://www.guitartabs.cc/tabs/s/suffer_me/grip_tab.html ]
Again can you see my picture
Can you dust away that layer of sorrow
I can feel you now more than ever
I feel so close but still so far
I pray and god only knows how I can
Cos' oh lord how we need it
Let it rest on me now
For the last time I can feel
And I can see it all so clear


[-----------------------------------------------------------------------]


Chorus:
Am		Em
I've always needed to be where you are
Am		Em
I can see you looking out your window
Am		Em
You are looking up but you can't see
Am		Em
This pain I feel each day infront of you
Am		Em
I'm holding your gaze and can't let go
Am		Em
But you can't get a grip on mine


[-----------------------------------------------------------------------]


Outro:
				
e ---------------------------------------------------
B ------1---------0h1-0-----------------0------------
G ----2---2-----2-----------------0-------0---0------
D --2---------2-----------------2---2-------2--------
A ----------------------------2----------------------
E ---------------------------------------------------        x 2

	
e ---------------------------------------------------
B ------1---------0h1-0-----------------0------------
G ----2---2-----2-----------------0-------0---0------
D --2---------2-----------------2---2-------2--------
A ----------------------------2----------------------
E ---------------------------------------------------

				
e ---------------------------------------------------------------------------------
B ------1---------0h1-0-----------------0---------0----------0---------------------
G ----2---2-----2-----------------0-------0---0-----0---0------0----0---0---0------
D --2---------2-----------------2---2-------2---------2----------2----2---2---2~---
A ----------------------------2----------------------------------------------------
E ---------------------------------------------------------------------------------
Comments