Suede - Saturday Night Chords & Tabs

 

Saturday Night Chords & Tabs

Suede Chords & Tabs

Version: 2 Type: Tab 0 ratings
1 star 2 stars 3 stars 4 stars 5 stars
comments

Saturday Night Tab

   
#----------------------------------PLEASE NOTE---------------------------------#
#This file is the author's own work and represents their interpretation of the #
#song. You may only use this file for private study, scholarship, or research. #
#------------------------------------------------------------------------------#

"Saturday Night"
                                 Suede

Amaj7/G#     (4x2120)
Bm7/F#       (224232)
Bbmaj7/F     (113231)
Esus4        (022200)
Bbmaj7/A     (x03231)

Tuning: (Eb G# C# F# Bb Eb) = Tune all strings 1/2 step down.


[ Tab from: http://www.guitartabs.cc/tabs/s/suede/saturday_night_tab_ver_2.html ]
   A                                    Amaj7/G#
-|---------------------------------------------------------------------------|-
-|----------2-----------------2-----------------2-----------------2----------|-
-|------2-----2---2-------2-----2---2-------1-----1---1-------1-----1---1----|-
-|----2---2-----2-------2---2-----2-------2---2-----2-------2---2-----2------|-
-|--0-----------------0------------------------------------------------------|-
-|--------------------------------------4-----------------4------------------|-
    G                                  Bm7/F#            Bbmaj7/F
-|---------------------------------------------------------------------------|-
-|----------0----------------0-----------------3----------------3------------|-
-|------0-----0---0------0-----0---0-------2-----2---2------2-----2---2------|-
-|----0---0-----0------0---0-----0-------4---4-----4------3---3-----3--------|-
-|---------------------------------------------------------------------------|-
-|--3----------------3-----------------2----------------1--------------------|-
    Esus4         E
-|--------------------------------|-
-|---------------------------0----|-
-|-------2--2--2--1------1h2------|-
-|-------2--2--2--2----2----------|-
-|----2-------------2-------------|-
-|--0-----------------------------|-



-e------0---------------0-------------------------------1-----0---------------|-
-B--2h3---3-2p0-----2h3---3-2p0--0--0h2--2h3--3--2--3-----3-----3---3---------|-
-G--------------1----------------0--0h2--2h4--4--2--2-------2-----2-----------|-
-D----------------------------------------------------------------------------|-
    Esus4    E
-e---------------------------0------------------------------------------------|-
-B------3-3--0------------0---------------------------------------------------|-
-G---2--2-2--1--1---1-1h2-----------------------------------------------------|-
-D----------------------------------------------------------------------------|-


Tabman_oo7
Comments