Suede - Positivity Chords & Tabs

 

Positivity Chords & Tabs

Suede Chords & Tabs

Version: 1 Type: Tab 0 ratings
1 star 2 stars 3 stars 4 stars 5 stars
comments

Positivity Tab

Title: Positivity
Artist: Suede
Album: A New Morning
Year: 2002
Tabbed By: Stuart Bowers
This is the exact song order by the way!

Intro

e  15-------------------11---------------------------------11------------11--------------------
B  -------13---------------------13------------11-------13------------13------------13-----------
G  ---------------------------------------------------------------------------------------------- X4
D  ----------------------------------------------------------------------------------------------
A  ----------------------------------------------------------------------------------------------
E  ----------------------------------------------------------------------------------------------

Verses

e  4-------------------4-------------------6-----------------------------------------------------
B  4-------------------6-------------------8-----------------------------------------------------
G  5-------------------6-------------------8-----------------------------------------------------
D  6-------------------6-------------------8-----------------------------------------------------
A  6-------------------4-------------------6-----------------------------------------------------
E  4-------------------4-------------------6-----------------------------------------------------

Chorus

e  4------------6----------    -3--------------------------------------------------------------------------------------------
B  6------------8-----------   5-------------------------------------------------------------------------------------------
G  6------------8----------   -5--------------------------------------------------------------------------------------------
D  6------------8-     X2---- 5------Finish with-------------------------------------------------------------------------------------
A  4------------6----------     3--------------------------------------------------------------------------------------------
E  4------------6----------     3-------------------------------------------------------------------------------------------
[ Tab from: http://www.guitartabs.cc/tabs/s/suede/positivity_tab.html ]
Verse 2 (Electric Guitar Part In Background)
e  3------------4------------6-----------------------------------------------------------------------------------------
B  5------------6------------8-----------------------------------------------------------------------------------------
G  5------------6------------8-----------------------------------------------------------------------------------------
D  5------------6------------8-----------------------------------------------------------------------------------------
A  3------------4------------6-----------------------------------------------------------------------------------------
E  3------------4------------6-----------------------------------------------------------------------------------------

e  3------------4------------6------------10---------------------------------------------------------------------------
B  5------------6------------8------------12---------------------------------------------------------------------------
G  5------------6------------8------------12---------------------------------------------------------------------------
D  5------------6------------8------------12---------------------------------------------------------------------------
A  3------------4------------6------------10---------------------------------------------------------------------------
E  3------------4------------6------------10---------------------------------------------------------------------------

e  3------------4------------6-----------------------------------------------------------------------------------------
B  5------------6------------8-----------------------------------------------------------------------------------------
G  5------------6------------8-----------------------------------------------------------------------------------------
D  5------------6------------8-----------------------------------------------------------------------------------------
A  3------------4------------6-----------------------------------------------------------------------------------------
E  3------------4------------6-----------------------------------------------------------------------------------------

Chorus
Intro
Chorus
Intro Until End
Comments