Suede - Pantomime Horse Chords & Tabs

 

Pantomime Horse Chords & Tabs

Suede Chords & Tabs

Version: 1 Type: Chords 0 ratings
1 star 2 stars 3 stars 4 stars 5 stars
comments

Pantomime Horse Chords

   
#----------------------------------PLEASE NOTE---------------------------------#
#This file is the author's own work and represents their interpretation of the #
#song. You may only use this file for private study, scholarship, or research. #
#------------------------------------------------------------------------------#

#----------------------------------PLEASE NOTE---------------------------------#
#This file is the author's own work and represents their interpretation of the #
#song. You may only use this file for private study, scholarship, or research. #
#------------------------------------------------------------------------------##
>From: u8915431@qub.ac.uk (Tony Bowden)
--------------------------------------------------------------------------
                          Pantomime Horse

Intro
E         A  B  A  G  A  B  A  G
(arpeggiate gently;  A = xx7655, B = xx9877, etc.  Add 2nd on top string
while picking.  See below for more detail).

                A
during chorus: --------5h7p5------  move up 2 frets during B chord
               ----5h7-------7----  move down 2 frets during G chord
               -4/6---------------  (This is similar to the guitar
               -------------------   during the intro!)
               -------------------
               -------------------


           E    D     E (hold)    C            D            E
------------------------------------------------------------7-----
------------------------------------------------------------9-----
------------------------------------------------------------9-----
------------------------------------------------------------9-----
----------------------------------3-2---3-2---7-5---7-5-6-7-7-----
-----3-2-0----------------------------3-----3-----7---------------
bend...                           ever tried it that way..(etc.)

                 A
------------------------------------
-8----------------------------------
---9-7-----------------------------
-------9-7-------------repeat, etc.   Fade....
-----------9-7----------------------
------------------------------------

[ Tab from: http://www.guitartabs.cc/tabs/s/suede/pantomime_horse_crd.html ]
-----------------------------------------------------------------------------

                             The Drowners

Intro:   A (5fr) |  D (5fr) |  C (3fr) |  E

  The E is picked out approximately;
e----------------------------0----------
 -------------------------------0-------
 ---------------------1-----------------
 -----2------------------2--------------
 --------2--0--------------2------------
E ---0--------------0-------------------


Chorus (pick the chords):
         G (3fr) |  B (2fr)  |  C (3fr)  |  D (5fr)

   for the last C chord bend the middle three strings up one semitone.

  Note that when playing the chords don't stick exactly to a rigid shape.  
Eg for C
e---------------------------
 ---------------------------
 ---------------5-p5--------   etc.
 ----------3-h5-------------
 ----3-h5-------------------
E --------------------------

  This is very approximate and I can't for the life of me
remember now how the break goes.  Just remember that if you
tune down then the chords for a song like Moving are just
standard shapes with an extra note or two picked out for
interest.

------------------------------------------------------------------------------

                               Metal Mickey 


INTRO:
-----------------------------------
---------------------1-------------
-0(fb)--2(p)0------0---0-----------
-------------2(p)0-------0----------
---------------------------3--0__(effects) (I think he scrapes the pick
-----------------------------------           along the A string)

The main rhythm is A5 A5 G A5:
-----------------------------------
-----------------------------------
-2-2-0-2-2-------------------------
-2-2-0-2-2-------------------------
-0-0---0-0---etc.------------------
-----------------------------------

so the rest of the intro, as well as the verses, are
A5   G   D   C   A (with this lick thrown in:E|-2-3-2-3---)
                                             B|-2-2-2-2---
                                             G|-----------


then A5 G A5 G A5 G etc. into solo  (A blues pentatonic scale, centered
around 5th position: notes are A C D E G)
Comments