Suede - New Generation Chords & Tabs

 

New Generation Chords & Tabs

Suede Chords & Tabs

Version: 1 Type: Chords 0 ratings
1 star 2 stars 3 stars 4 stars 5 stars
comments

New Generation Chords

   
#----------------------------------PLEASE NOTE---------------------------------#
#This file is the author's own work and represents their interpretation of the #
#song. You may only use this file for private study, scholarship, or research. #
#------------------------------------------------------------------------------##
#

#----------------------------------PLEASE NOTE---------------------------------#
#This file is the author's own work and represents their interpretation of the #
#song. You may only use this file for private study, scholarship, or research. #
#------------------------------------------------------------------------------#

Date: Sun, 08 Dec 1996 21:43:16 -0600
From: Jarvis Cocker 
Subject: TAB : New Generation by Suede

New Generation -  Off the Album   DOG MAN STAR  

by Suede

Tabed by Farhan Kazmi and Jeff Chen
(f-kazmi@uiuc.edu)



(Main Riff)


INTRO and FIRST CHORUS (first chorus is "like all boys and all cities")
[ Tab from: http://www.guitartabs.cc/tabs/s/suede/new_generation_crd.html ]
d----------44----33-------444--3--4----------44---33----------------
a-------------------6------------------6-------------333-3--4---6--- x2
e-------------------------------------------------------------------

repeat this during the 1st chorus and the bass or second guitar plays 

F#  and   G#  repeatedly with G being played on the SLide between G# and F#

YOU ALSO PLAY THESE 2 CHORDS DURING the "I'm losing myself" part



The Verses are like the Second chorus.....(I wake up every day)
the chords are

C#      then    G#   then slide to  A   to then  Bb     then  F#



The Second Chorus (Oh, but she is calling...blah)
the chords are

C#      then   F     then   Bb    then   F#


then the guitar riff during the breakdown is this


a---------------4-----4---6---4----------------4--------------44---66-55-
E--------4---6-----6-------------4----4----6------6---6---444------------ X4

Then the FINAL BREAK DOWN IN A SCALE

g--11--10--8--6--5--3--1------------------------1
d-------------------------4---3---1-----1---3----
a------------------------------------------------  X 2
e------------------------------------------------

Final Note in Song is

g---11

Comments