Suede - Electricity Chords & Tabs

 

Electricity Chords & Tabs

Suede Chords & Tabs

Version: 1 Type: Tab 0 ratings
1 star 2 stars 3 stars 4 stars 5 stars
comments

Electricity Tab

   
T1: Langden ALgar, obleroza@hotmail.com, Suede, electricity, ??/04/99

S1: Great song from a pretty boring album.
I might send in the complete album yet though.
Enjoy, Title:  Electricity
From:   Suede
Album:  Coming Up

Intro
A G A G A G E

Verse w/rhythm. Fig. 1 three times
A                                 G
We got a love that's as cold as stone
A                                 G
We got a love for a violent home
A                                 G
We got a love that ain't got no name
E w/rhythm fig 2
We kiss all over the lips like pain


Verse w/rythm figure 1 three times
A                                G
We gotta lot of electricity
A                                 G
We gotta love that ain't got no shame
A                                 G
We kiss all over the lips like pain
E w/rythm Figure 2 twice
Kissing all over the lips like pain
E
Kissing all over the lips like pain


Chorus
B                                 F#m
I said Oh its bigger than the universe
C#m
Bigger than the universe,
F#5                             E w/fill2
Bigger than the two of us
B                                 F#m
Oh its bigger than you and me
C#m                             F#5       G w/fill3
We got a love between us and its like electricity
A G w/fill1

Verse w/rhythm fig 1 four times
A G
A                                    G
We got a love like a violent mind
A                                    G
We got a love for the white, white lies
A                                    G
We got a love that ain't got no name
E
We kiss all over the lips like pain
[ Tab from: http://www.guitartabs.cc/tabs/s/suede/electricity_tab.html ]
Verse w/rhythm fig 1 three time
A                                    G
We got a love from nowhere forms
A                                    G
We got a love like electric sands
A                                     G
We got a love that ain't got no shame
E w/rhythm. fig.2 twice
We kiss all over the lip like pain
E
We kiss all over the lips like pain

Chorus
        Simile

Solo
A G  A G A G E E w/rhythm fig.2 twice

Chorus twice
B                                 F#m
I said Oh its bigger than the universe
C#m
Bigger than the universe,
F#5                             E w/fill2
Bigger than the two of us
B                                 F#m
Oh its bigger than you and me
C#m                             F#5 E w/fill3
We got a love between us and its like electricity

Repeat twice instrumentally

Finish on B

Rhythm figure 1
E-----------------------------------
G--------_--------------------------
B--_--0-2-0----------w/fiil 1-------
D-0-2-------2-----------------------
A-----------------------------------
E-------------3---------------------

Rhythm figure 2
E-----------------------------------
g-----------------------------------
b-1-1-1-1-1-2-2-1-------------------
d-2-2-2-2-2-2-2-2-------------------
a-----------------------------------
e-----------------------------------

Fill1 w/wah?
E-----------------------------------
b-----------------------------------
g-----------------------------------
d------(7)b9--7---------------------
a-----------------------------------
e-----------------------------------

Fill2
E-----------------------------------
g-------------5-5-5-5-5-5-5---------
b-------------4-4-4-4-4-4-4---------
d-------------2-2-2-2-2-2-2---------
a-4---------------------------------
e-2-0-2-4-5-4-----------------------

Fill 3
E-----------------------------------
b-----------------------------------
g------------------_----------------
d-------------5-5-4-5-2-7\----------
a-2---------------------7\----------
e-4-0-2-4-5-3-----------5\----------

Solo Figure three times
E-----------------------------------
b-----------------------------------
g-2-2-4-2-(4)b6---0-0-2-0-(2)b4-----
d-----------------------------------
a-----------------------------------
e-----------------------------------

Notes
1. All music is in common time 4/4 time signature
2. All guitars arranged for standard tuning, ie EADGBE
3. This file is my own work and represents my own interpretation
4. All comments queries and thanks to Obleroza@hotmail.com



Comments