Suede - Crack In The Union Jack Chords & Tabs

 

Crack In The Union Jack Chords & Tabs

Suede Chords & Tabs

Version: 2 Type: Tab 0 ratings
1 star 2 stars 3 stars 4 stars 5 stars
comments

Crack In The Union Jack Tab

   
Tabbed by AAuuddee@aol.com


ACOUSTIC GUITAR THROUGHOUT THE WHOLE SONG


INTRO:

  G   F
--3---1---|
--3---1---|
--4---2---| repeat
--5---3---|
--5---3---|
--3---1---|


VERSE1:

  G   F
--3---1---|
--3---1---|
--4---2---| repeat
--5---3---|
--5---3---|
--3---1---|


CHORUS:
[ Tab from: http://www.guitartabs.cc/tabs/s/suede/crack_in_the_union_jack_tab_ver_2.html ]
  Am  G   F   C   Am  G   Bb  C
--0---3---1---0---0---3---1---0--|
--1---0---1---1---1---0---3---1--|
--2---0---2---0---2---0---3---0--|
--2---0---3---2---2---0---3---2--|
--0---2---3---3---0---2-------3--|
------3---1-----------3----------|


VERSE2:

  G   F
--3---1---|
--3---1---|
--4---2---| repeat
--5---3---|
--5---3---|
--3---1---|


CHORUS:

  Am  G   F   C   Am  G   Bb  C  Bb   C
--0---3---1---0---0---3---1---0---1---0--|
--1---0---1---1---1---0---3---1---3---1--|
--2---0---2---0---2---0---3---0---3---0--|
--2---0---3---2---2---0---3---2---3---2--|
--0---2---3---3---0---2-------3-------3--|
------3---1-----------3------------------|

ENJOY!!
Comments