Such A Surge - Silver Surger Chords & Tabs

 

Silver Surger Chords & Tabs

Such A Surge Chords & Tabs

Version: 2 Type: Bass Tab 0 ratings
1 star 2 stars 3 stars 4 stars 5 stars
comments

Silver Surger Bass Tab

SONG: Siver Surger
BAND: Such a SURGE
ALBUM: Der SURGE Effekt
Tabbed by ZackDeLaRocha667@aol.com (MrGentlman@aol.com)


Standard tuning


Riff 1 (chorus)
[ Tab from: http://www.guitartabs.cc/tabs/s/such_a_surge/silver_surger_btab_ver_2.html ]
G|----------------------------|
D|----------------------------| Repeat ?x
A|----------------------------|
E|-6--6-6-4-4-4/--8---8-1-1-1-|


Riff 2 (verse)

G|-----------------------------|
D|-----2--------------2--------| Repeat ?x
A|---2---2----------2---2------|
E|-0-------4--44--0-------4--6-|


Play after Riff 2 

E|-0--0-0-0-0-|


Any Questions? (-Mail Me: ZackDeLaRocha@aol.com)
Comments