Suburban Legends - Gummi Bears Chords & Tabs

 

Gummi Bears Chords & Tabs

Suburban Legends Chords & Tabs

Version: 1 Type: Tab 0 ratings
1 star 2 stars 3 stars 4 stars 5 stars
comments

Gummi Bears Tab

   
Suburban Legends
"Gummi Bears" 
CD: origin edition

Strum: down down up / up down up

Intro:
    G   Em   C  G   C  G  C  D
E-------------------------------------------|
B-------------------------------------------|
G------------5------5------5---7----------|
D--5---2----5--5---5--5--5---7----------|
A--5---2----3--5---3--5--3---5----------|
E--3---0--------3------3------------------|
[ Tab from: http://www.guitartabs.cc/tabs/s/suburban_legends/gummi_bears_tab.html ]
Verses: ("Their dashing and daring...")
    G5  E5  C5  G5  C5  G5  C5   D5
E-----------------------------------------------|
B-----------------------------------------------|
G------------5-------5-------5----7-----------|
D--5---2----5---5---5---5---5----7----------|
A--5---2----3---5---3---5---3----5----------|
E--3---0---------3-------3--------------------|
 
(note: this part is at a WAY faster tempo than the intro...as you SL fans may know already)

Chorus:

E----------------------------|
B----------------------------|
G------------5-------5------|
D--5---9----5---5---5---7--|
A--5---9----3---5---3---7--|
E--3---7---------3-------5--|

Listen to the song, im 90% sure this is right. skank on! -Katie
Comments