Submersed - You Run Chords & Tabs

 

You Run Chords & Tabs

Submersed Chords & Tabs

Version: 1 Type: Tab 0 ratings
1 star 2 stars 3 stars 4 stars 5 stars
comments

You Run Tab

-----------------------------------------------------------------------------
			     YOU RUN - Submersed
-----------------------------------------------------------------------------
Tabbed by:reuben
Email:rubes_intheleast88@hotmail.com

Tuning:Drop D; down half step


Intro

gtr2
eb|-----------------------------------------------------------------|
Bb|-----------------------------------------------------------------|
Gb|-----------------------------------------------------------9-----|
Db|---------11-/12--\---11~~~~~~~~----------11-/12\11-9-11-12--12-11|
Ab|-----9-------------------------0-----9---------------------------|
Db|-9-------------------------------9-------------------------------|

gtr2
eb|-----------------------------------------------------------------|
Bb|-----------------------------------------------------------------|
Gb|-----------------------------------------------11-11h1211--------|
Db|---------11-/12-----11~~~~~~~~~----------11/12----------1211h12p11
Ab|-----9-------------------------0-----9---------------------------|
Db|-9-------------------------------9-------------------------------|
           (*fill 1)                     

            *fill 1
            Gtr1
            eb|--9h10--9~~~~~~~~~~~~~-9h10--9-----------------------|
            Bb|-x------------------------------10--12---------------|
            Gb|x---------------------------------------9---11-------|
            Db|------------------------------------------------9~~~~|
            Ab|-----------------------------------------------------|
            Db|-----------------------------------------------------|

verse 1
gtr2
eb|-----------------------------------------------------------------|
Bb|-----------------------------------------------------------------|
Gb|-----------------------------------------------------------------|
Db|-9-------11----1111--9-9---9-9-9-9-9-9---11----1111--9-9---9-9-9-|
Ab|-9-------9-----9-9---9-9---9-9-9-9-9-9---9-----9-9---9-9---9-9-9-|
Db|-9-------9-----9-9---9-9---9-9-9-9-9-9---9-----9-9---9-9---9-9-9-|
                                                              (*fill 2)
gtr2
eb|-----------------------------------------------------------------:|
Bb|-----------------------------------------------------------------:|
Gb|-----------------------------------------------------------------:|
Db|-7-----7-7-7-7---------------7-7-7-----7-7-7-7-----------7-7---x/:|
Ab|-5-----5-5-5-5---------------5-5-5-----5-5-5-5-----------5-5---x/:|
Db|-5-----5-5-5-5---------------5-5-5-----5-5-5-5-----------5-5---x/:|

      *fill 2
    gtr 1
    eb|---------------------------------------------------------------------|
    Bb|-10--\-7~~~~~~------\-----7-b8-b7-----7------------------------------|
    Gb|-----------------------------------9-----9--7--9--7b9b7--------------|
    Db|---------------------------------------------------------9-----7/9~~~|
    Ab|------------------------------------------------------------9--------|
    Db|---------------------------------------------------------------------|


gtr2
eb|-----------------------------------------------------------------|
Bb|-----------------------------------------------------------------|
Gb|-----------------------------------------------------------------|
Db|-9-------11----1111--9-9---9-9-9-9-9-9---11----1111--9-9---9-9-9-|
Ab|-9-------9-----9-9---9-9---9-9-9-9-9-9---9-----9-9---9-9---9-9-9-|
Db|-9-------9-----9-9---9-9---9-9-9-9-9-9---9-----9-9---9-9---9-9-9-|
                                                              (*fill 3)
gtr2                                  [dist]
eb|------------------------------------------------------------------|
Bb|------------------------------------------------------------------|
Gb|------------------------------------------------------------------|
Db|-7-----7-7-7-7---------------7-7-7-------x-x--------------x-x-----|
Ab|-5-----5-5-5-5---------------5-5-5-------x-x--------------x-x-----|
Db|-5-----5-5-5-5---------------5-5-5-------x-x--------------x-x-----|

      *fill 3
       gtr1
        eb|-9h10--9----h10p9-------------------9h10--9------------------|
        Bb|x------------------10~~~~~~~~~~---------------10--12---------|
        Gb|------------------------------------------------------9---11-|
        Db|-------------------------------------------------------------|
        Ab|-------------------------------------------------------------|
        Db|-------------------------------------------------------------|
                             trem.  \.5/\ /


Prechorus
gtr2
eb|-----------------------------------------------------------------|
Bb|-----------------------------------------------------------------|
Gb|-6-----6-------6-6-7-9-----9-9-7-7-------7-----7-7-7-7/9h11-p9---|
Db|---4-----4-----x-x-x-x-----x-x-x-5-------5-----5-5-5-------------|
Ab|---------------4-4-5-7-----7-7-5-5-------5-----5-5-5-------------|
Db|---------------------------------5-------5-----------------------|
gtr1
eb|-----------------------------------------------------------------|
Bb|-----------------------------------------------------------------|
Gb|-11----1111----11111111----1111117-------7-----7-7-9-9-----9-9-9-|
Db|-11----1111----11111111----1111117-------7-----7-7-7-7-----7-7-7-|
Ab|-9-----9-9-----9-9-9-9-----9-9-9-5-------5-----5-5-7-7-----7-7-7-|
Db|-9-----9-9-----9-9-9-9-----9-9-9-5-------5-----0-0-7-7-----7-7-7-|

gtr2
eb|-----------------------------------------------------------------|
Bb|-----------------------------------------------------------------|
Gb|---------------------9-9-9-7-7-7-7-----7-7-----7-9-9-9-9-----9-9-|
Db|-11----11----11------x-x-x-x-x-x-5-----7-7-----x-x-x-x-7-----7-7-|
Ab|---9-----9-----9---9-7-7-7-5-5-5-5-----5-5-----5-7-7-7-7-----7-7-|
Db|---------------------------------5-----5-5-------------7-----7-7-|
gtr1
eb|-----------------------------------------------------------------|
Bb|-----------------------------------------------------------------|
Gb|-11----1111----11111111----1111117-----7-7-----7-7-9-9-9-9-9-9-9-|
Db|-11----1111----11111111----1111117-----7-7-----7-7-9-9-7-7-7-7-7-|
Ab|-9-----9-9-----9-9-9-9-----9-9-9-5-----5-5-----5-5-7-7-7-7-7-7-7-|
Db|-9-----9-9-----9-9-9-9-----9-9-9-5-----5-5-----0-0-7-7-7-7-7-7-7-|


Chorus
gtr2
eb|-----------------------------------------------------------------|
Bb|-----------------------------------------------------------------|
Gb|-6-----6-----6-----6-----6-------7-----7-----7-----7-----7-------|
Db|---7-----7-----7-----7-----7-7-9---9-----9-----9-----9-----9-----|
Ab|-----------------------------------------------------------------|
Db|-----------------------------------------------------------------|
gtr1
eb|-----------------------------------------------------------------|
Bb|-----------------------------------------------------------------|
Gb|-4-----4-4-----4-4-4-4-----4-4-4-7-------7-----7-7-7-7---7-7-7-7-|
Db|-2-----2-2-----2-2-2-2-----2-2-2-5-------5-----5-5-5-5---5-5-5-5-|
Ab|-2-----2-2-----2-2-2-2-----2-2-2-5-------5-----5-5-5-5---5-5-5-5-|
Db|-2-----2-2-----2-2-2-2-----2-2-2-5-------5-----5-5-5-5---5-5-5-5-|

gtr2
eb|-----------------------------------------------------------------|
Bb|-----------------------------------------------------------------|
Gb|11----11----11----1311--1311-----9-----9-----9-------------------|
Db|--12----12----12------12----1211---11----11---11-11b12b11b12b11\9p7h9
Ab|-----------------------------------------------------------------|
Db|-----------------------------------------------------------------|
gtr1
eb|-----------------------------------------------------------------|
Bb|-------------------------------------------------2b3b2b3b2h0-----|
Gb|-4-----4-4-----4-4-4-4-----4-4-4-2-----2-2-2-2---------------2h4-|
Db|-4-----4-4-----4-4-4-4-----4-4-4-2-----2-2-2-2-------------------|
Ab|-2-----2-2-----2-2-2-2-----2-2-2-0-----0-0-0-0-------------------|
Db|-----------------------------------------------------------------|

gtr2
eb|-----------------------------------------------------------------|
Bb|-----------------------------------------------------------------|
Gb|-6-----6-----6-----6-----6-------7~~~~~~~~~~~~~~~~~~~~~~~~~~~~\--|
Db|---7-----7-----7-----7-----7-7-9---------------------------------|
Ab|-----------------------------------------------------------------|
Db|-----------------------------------------------------------------|
gtr1
eb|-----------------------------------------------------------------|
Bb|-----------------------------------------------------------------|
Gb|-4-----4-4-----4-4-4-4-----4-4-4-7-------------------------------|
Db|-2-----2-2-----2-2-2-2-----2-2-2-5-------------------------------|
Ab|-2-----2-2-----2-2-2-2-----2-2-2-5-------------------------------|
Db|-2-----2-2-----2-2-2-2-----2-2-2-5-------------------------------|


  gtr1
eb|------------------------------9b10b9--\7-|
Bb|------------------10----12---------------|
Gb|-------9h11------------------------------|
Db|------------9--------------9-------------|
Ab|-----------------------------------------|
Db|-----------------------------------------|


Verse 2
gtr2
eb|-----------------------------------------------------------------|
Bb|-----------------------------------------------------------------|
Gb|-----------------------------------------------------------------|
Db|-9-------11----1111--9-9---9-9-9-9-9-9---11----1111--9-9---9-9-9-|
Ab|-9-------9-----9-9---9-9---9-9-9-9-9-9---9-----9-9---9-9---9-9-9-|
Db|-9-------9-----9-9---9-9---9-9-9-9-9-9---9-----9-9---9-9---9-9-9-|
                                                              (*fill 4)
gtr2
eb|-----------------------------------------------------------------:|
Bb|-----------------------------------------------------------------:|
Gb|-----------------------------------------------------------------:|
Db|-7-----7-7-7-7---------------7-7-7-----7-7-7-7-----------7-7---x/:|
Ab|-5-----5-5-5-5---------------5-5-5-----5-5-5-5-----------5-5---x/:|
Db|-5-----5-5-5-5---------------5-5-5-----5-5-5-5-----------5-5---x/:|

      *fill 4
    gtr 1
    eb|--------------------------------------------------7------------------|
    Bb|-10--\-7~~~~~~---\---7--h8p7-----------------------------------------|
    Gb|------------------------------9--7--9--9b10b9--7-----9b10b9--7-------|
    Db|----------------------------------------------------------------9~~~~|
    Ab|---------------------------------------------------------------------|
    Db|---------------------------------------------------------------------|


gtr2
eb|-----------------------------------------------------------------|
Bb|-----------------------------------------------------------------|
Gb|-----------------------------------------------------------------|
Db|-9-------11----1111--9-9---9-9-9-9-9-9---11----1111--9-9---9-9-9-|
Ab|-9-------9-----9-9---9-9---9-9-9-9-9-9---9-----9-9---9-9---9-9-9-|
Db|-9-------9-----9-9---9-9---9-9-9-9-9-9---9-----9-9---9-9---9-9-9-|
                                                              (*fill 5)
gtr2                     [dist]
eb|------------------------------------------------------------------|
Bb|------------------------------------------------------------------|
Gb|------------------------------------------------------------------|
Db|-7-----7-7-7-7-----------x-x-------------x-x------------x-x-x-----|
Ab|-5-----5-5-5-5-----------x-x-------------x-x------------x-x-x-----|
Db|-5-----5-5-5-5-----------x-x-------------x-x------------x-x-x-----|

  *fill 5
   gtr1
    eb|-9h10--9----h10p9------------------9h10--9----------12b14b12--10|
    Bb|x------------------10~~~~~~~~~~-------------10--12--------------|
    Gb|----------------------------------------------------------------|
    Db|----------------------------------------------------------------|
    Ab|----------------------------------------------------------------|
    Db|----------------------------------------------------------------|
                       
Prechorus
gtr2
eb|-----------------------------------------------------------------|
Bb|-----------------------------------------------------------------|
Gb|-6-----6-------6-6-7-9-----9-9-7-7-------7-----7-7-7-7h9/11-p9---|
Db|---4-----4-----x-x-x-x-----x-x-x-5-------5-----7-7-7-------------|
Ab|---------------4-4-5-7-----7-7-5-5-------5-----5-5-5-------------|
Db|---------------------------------5-------5-----------------------|
gtr1
eb|-9-----9-9-----9-9-9-9-----9-9-9-5-------5-----------------------|
Bb|-x-----x-x-----x-x-x-x-----x-x-x-x-------x-----------------------|
Gb|-11----1111----11111111----1111117-------7-----7-7-9-9-----9-9-9-|
Db|-11----1111----11111111----1111117-------7-----7-7-9-9-----7-7-7-|
Ab|-9-----9-9-----------------9-9-9-5-------5-----5-5-7-7-----7-7-7-|
Db|-9-----9-9-----9-9-9-9-----9-9-9-5-------5-----0-0-7-7-----7-7-7-|

gtr2
eb|-----------------------------------------------------------------|
Bb|-----------------------------------------------------------------|
Gb|---------------------9-9-9-7-7-7-7-----7-7-----7-9-9-9-9-----9-9-|
Db|-11----11----11------x-x-x-x-x-x-5-----7-7-----x-x-x-x-7-----7-7-|
Ab|---9-----9-----9---9-7-7-7-5-5-5-5-----5-5-----5-7-7-7-7-----7-7-|
Db|---------------------------------5-----5-5-------------7-----7-7-|
gtr1
eb|-----------------------------------------------------------------|
Bb|-----------------------------------------------------------------|
Gb|-11----1111----11111111----1111117-----7-7-----7-7-9-9-9-9-9-9-9-|
Db|-11----1111----11111111----1111117-----7-7-----7-7-9-9-7-7-7-7-7-|
Ab|-9-----9-9-----9-9-9-9-----9-9-9-5-----5-5-----5-5-7-7-7-7-7-7-7-|
Db|-9-----9-9-----9-9-9-9-----9-9-9-5-----5-5-----0-0-7-7-7-7-7-7-7-|

[ Tab from: http://www.guitartabs.cc/tabs/s/submersed/you_run_tab.html ]
2nd Chorus
gtr2
eb|-----------------------------------------------------------------|
Bb|-----------------------------------------------------------------|
Gb|-6-----6-----6-----6-----6-------7-----7-----7-----7-----7-------|
Db|---7-----7-----7-----7-----7-7-9---9-----9-----9-----9-----9-----|
Ab|-----------------------------------------------------------------|
Db|-----------------------------------------------------------------|
gtr1
eb|-----------------------------------------------------------------|
Bb|-----------------------------------------------------------------|
Gb|-4-----4-4-----4-4-4-4-----4-4-4-7-------7-----7-7-7-7---7-7-7-7-|
Db|-2-----2-2-----2-2-2-2-----2-2-2-5-------5-----5-5-5-5---5-5-5-5-|
Ab|-2-----2-2-----2-2-2-2-----2-2-2-5-------5-----5-5-5-5---5-5-5-5-|
Db|-2-----2-2-----2-2-2-2-----2-2-2-5-------5-----5-5-5-5---5-5-5-5-|

gtr2
eb|-----------------------------------------------------------------|
Bb|-----------------------------------------------------------------|
Gb|11----11----11----1311--1311-----9-----9-----9-------------------|
Db|--12----12----12------12----1211---11----11---11-11b12b11b12b11\9p7h9
Ab|-----------------------------------------------------------------|
Db|-----------------------------------------------------------------|
gtr1
eb|-----------------------------------------------------------------|
Bb|-3-----3-3-----3-3-3-3-----3-3-3-----------------2b3b2b3b2h0-----|
Gb|-4-----4-4-----4-4-4-4-----4-4-4-2-----2-2-2-2---------------2h4-|
Db|-4-----4-4-----4-4-4-4-----4-4-4-2-----2-2-2-2-------------------|
Ab|-2-----2-2-----2-2-2-2-----2-2-2-0-----0-0-0-0-------------------|
Db|-----------------------------------------------------------------|

gtr2
eb|-----------------------------------------------------------------|
Bb|-----------------------------------------------------------------|
Gb|-6-----6-----6-----6-----6-------7~~~~~~~~~~~~~~~~~~~~~~~~~~~~\--|
Db|---7-----7-----7-----7-----7-7-9---------------------------------|
Ab|-----------------------------------------------------------------|
Db|-----------------------------------------------------------------|
gtr1
eb|-----------------------------------------------------------------|
Bb|-----------------------------------------------------------------|
Gb|-4-----4-4-----4-4-4-4-----4-4-4-7-------------------------------|
Db|-2-----2-2-----2-2-2-2-----2-2-2-5-------------------------------|
Ab|-2-----2-2-----2-2-2-2-----2-2-2-5-------------------------------|
Db|-2-----2-2-----2-2-2-2-----2-2-2-5-------------------------------|

breakdown
gtr2(clean)
eb|-----------------------------------------------------------------|
Bb|-----------------------------------------------------------------|
Gb|---------11------1112--11----------------11------1112--11--------|
Db|-------12------12----------12----------12------12----------12----|
Ab|-14--14------14--------------14--12--12------12--------------12-\|
Db|-----------------------------------------------------------------|
gtr1
eb|-----------------------------------------------------------------|
Bb|-12~~~~~~~~~~~~~~~~~~~~~~~~~~~~~\10~~~~~~(*12)~~~~~~~~~~~~~~~~~~~|
Gb|-----------------------------------------------------------------|
Db|-----------------------------------------------------------------|
Ab|-----------------------------------------------------------------|
Db|-----------------------------------------------------------------|

gtr2
eb|-----------------------------------------------------------------|
Bb|-----------------------------------------------------------------|
Gb|---------11------1112--11----------------11------1112-/14--12p11-|
Db|-------12------12----------12----------12------12----------------|
Ab|-10--10------10--------------10--9---9-------9-------------------|
Db|-----------------------------------------------------------------|
gtr1
eb|-----------------------------------------------------------------|
Bb|-(*12)~~~~~~~~~~~~~~~~~~~~~~~~~~~~~~~(*12)~~~~~~~~~~~~~~~~~~~----|
Gb|-11~~~~~~~~~~~~~~~~~~~~~~~~~~~~~~~~~~~~--------------------------|
Db|------------------------------------------14p12----11~~~~~~~~~/--|
Ab|-----------------------------------------------------------------|
Db|-----------------------------------------------------------------|

gtr2
eb|-----------------------------------------------------------------|
Bb|-----------------------------------------------------------------|
Gb|---------11------1112--11----------------11------1112--11--------|
Db|-------12------12----------12----------12------12----------12----|
Ab|-14--14------14--------------14--12--12------12--------------12-\|
Db|-----------------------------------------------------------------|
gtr1
eb|-----------------------------------------------------------------|
Bb|-----------------------------------------------------------------|
Gb|-----------------------------------------------------------------|
Db|-----------------------------------------------------------------|
Ab|-9-9-9-9-9-9-9-9-9-9-9-1111121212\7-7-7-7-7-7-7-7-7-9-9-9-9-9-9-\|
Db|-----------------------------------------------------------------|
   (gtr 1 tremolo picking)


Bridge
gtr2
eb|-----------------------------------------------------------------|
Bb|-----------------------------------------------------------------|
Gb|-11--------------12----11~~~-----11------11------12----11--9~~~~~|
Db|-9---------------9-----9---------9-------9-------9-----9---9-----|
Ab|-----------------------------------------------------------------|
Db|-----------------------------------------------------------------|
gtr1           (gtr2)-trem  \.5/ \ /
eb|-----------------------------------------------------------------|
Bb|-----------------------------------------------------------------|
Gb|-4-----4-4-----4-4-4-4-----4-4-4-4-----4-4-----4-4-4-------4-4-4-|
Db|-4-----4-4-----4-4-4-4-----4-4-4-4-----4-4-----4-4-4-------4-4-4-|
Ab|-2-----2-2-----2-2-2-2-----2-2-2-2-----2-2-----2-2-2-------2-2-2-|
Db|-----------------------------------------------------------------|
    ^                               ^
gtr2
eb|-----------------------------------------------------------------|
Bb|-----------------------------------------------------10----------|
Gb|-11------11~~~---11h12-11~~~~~~~-11------11------11h12--12--11~~~|
Db|-9-----9-------9-----------------9-----9-------9-----------------|
Ab|-0---------------------------------------------------------------|
Db|-0---------------------------------------------------------------|
gtr1          (gtr2)-trem  \.5/ \ /
eb|-----------------------------------------------------------------|
Bb|-3-------3-----3-3---3-3---3-3-3-3-------3-----3-3-3-3---3-3-----|
Gb|-2-------2-----2-2---2-2---2-2-2-2-------2-----2-2-2-2---2-2-----|
Db|-0-------0-----0-0---0-0---0-0-0-0-------0-----0-0-0-0---0-0-----|
Ab|-0-------0-----0-0---0-0---0-0-0-0-------0-----0-0-0-0---0-0-----|
Db|-0-------0-----0-0---0-0---0-0-0-0-------0-----0-0-0-0---0-0-----|
    ^                               ^
gtr2
eb|-----------------------------------------------------------------|
Bb|-----------------------------------------------------------------|
Gb|-11----1111------12----11~~~-----11------11------12----11--9~~~~~|
Db|-9-----9-9-------9-----9---------9-------9-------9-----9---9-----|
Ab|-----------------------------------------------------------------|
Db|-----------------------------------------------------------------|
gtr1           (gtr2)-trem  \.5/ \ /
eb|-----------------------------------------------------------------|
Bb|-----------------------------------------------------------------|
Gb|-4-----4-4-----4-4-4-4-----4-4-4-4-----4-4-----4-4-4-------4-4-4-|
Db|-4-----4-4-----4-4-4-4-----4-4-4-4-----4-4-----4-4-4-------4-4-4-|
Ab|-2-----2-2-----2-2-2-2-----2-2-2-2-----2-2-----2-2-2-------2-2-2-|
Db|-----------------------------------------------------------------|
    ^                               ^
gtr2
eb|-----------------------------------------------------------------|
Bb|-----------------------------------------------------------------|
Gb|-11------11------11h12-11~~~~~\--9-----9-9-9-9-----9-9-9-9-9-----|
Db|-9-----9-------9-----------------7-----7-7-7-7-----7-7-7-7-7-----|
Ab|-0-------------------------------0-----0-0-0-0-----0-0-0-0-0-12\\|
Db|-0-----------------------------------------------------------12\\|
gtr1
eb|-----------------------------------------------------------------|
Bb|-3-----------3-3-3---------3-3-3---------------------------------|
Gb|-2-----------2-2-2---------2-2-2-2-----2-2-2-2-----2-2-2---------|
Db|-0-----------0-0-0---------0-0-0-2-----2-2-2-2-----2-2-2---------|
Ab|-0-----------0-0-0---------0-0-0-0-----0-0-0-0-----0-0-0--12\\\--|
Db|-0-----------0-0-0---------0-0-0--------------------------12\\\\-|

Last Chorus
gtr2
eb|-----------------------------------------------------------------|
Bb|-----------------------------------------------------------------|
Gb|-6-----6-----6-----6-----6-------7-----7-----7-----7-----7-------|
Db|---7-----7-----7-----7-----7-7-9---9-----9-----9-----9-----9-----|
Ab|-----------------------------------------------------------------|
Db|-----------------------------------------------------------------|
gtr1
eb|-----------------------------------------------------------------|
Bb|-----------------------------------------------------------------|
Gb|-4-----4-4-----4-4-4-4-----4-4-4-7-------7-----7-7-7-7---7-7-7-7-|
Db|-2-----2-2-----2-2-2-2-----2-2-2-5-------5-----5-5-5-5---5-5-5-5-|
Ab|-2-----2-2-----2-2-2-2-----2-2-2-5-------5-----5-5-5-5---5-5-5-5-|
Db|-2-----2-2-----2-2-2-2-----2-2-2-5-------5-----5-5-5-5---5-5-5-5-|

gtr2
eb|-----------------------------------------------------------------|
Bb|-----------------------------------------------------------------|
Gb|11----11----11----1311--1311-----9-----9-----9-------------------|
Db|--12----12----12------12----1211---11----11---11-11b12b11b12b11\9p7h9
Ab|-----------------------------------------------------------------|
Db|-----------------------------------------------------------------|
gtr1
eb|-----------------------------------------------------------------|
Bb|-------------------------------------------------2b3b2b3b2h0-----|
Gb|-4-----4-4-----4-4-4-4-----4-4-4-2-----2-2-2-2---------------2h4-|
Db|-4-----4-4-----4-4-4-4-----4-4-4-2-----2-2-2-2-------------------|
Ab|-2-----2-2-----2-2-2-2-----2-2-2-0-----0-0-0-0-------------------|
Db|-----------------------------------------------------------------|


gtr2
eb|-----------------------------------------------------------------|
Bb|-----------------------------------------------------------------|
Gb|-6-----6-----6-----6-----6-------7-----7-----7-----7-----7-------|
Db|---7-----7-----7-----7-----7-7-9---9-----9-----9-----9-----9-----|
Ab|-----------------------------------------------------------------|
Db|-----------------------------------------------------------------|
gtr1
eb|-----------------------------------------------------------------|
Bb|-----------------------------------------------------------------|
Gb|-4-----4-4-----4-4-4-4-----4-4-4-7-------7-----7-7-7-7---7-7-7-7-|
Db|-2-----2-2-----2-2-2-2-----2-2-2-5-------5-----5-5-5-5---5-5-5-5-|
Ab|-2-----2-2-----2-2-2-2-----2-2-2-5-------5-----5-5-5-5---5-5-5-5-|
Db|-2-----2-2-----2-2-2-2-----2-2-2-5-------5-----5-5-5-5---5-5-5-5-|

gtr2
eb|-----------------------------------------------------------------|
Bb|-----------------------------------------------------------------|
Gb|11----11----11----1311--1311-----9-----9-----9-------------------|
Db|--12----12----12------12----1211---11----11---11-11b12b11b12b11\9p7h9
Ab|-----------------------------------------------------------------|
Db|-----------------------------------------------------------------|
gtr1
eb|-----------------------------------------------------------------|
Bb|-------------------------------------------------2b3b2b3b2h0-----|
Gb|-4-----4-4-----4-4-4-4-----4-4-4-2-----2-2-2-2---------------2h4-|
Db|-4-----4-4-----4-4-4-4-----4-4-4-2-----2-2-2-2-------------------|
Ab|-2-----2-2-----2-2-2-2-----2-2-2-0-----0-0-0-0-------------------|
Db|-----------------------------------------------------------------|


Outro
gtr2
eb|----------10--------------10---------------14--------------14----|
Bb|1212121012--12101212121012--1210/1515151415--15141515151415--1514|
Gb|-----------------------------------------------------------------|
Db|-----------------------------------------------------------------|
Ab|-----------------------------------------------------------------|
Db|-----------------------------------------------------------------|
gtr1
eb|-----------------------------------------------------------------|
Bb|-----------------------------------------------------------------|
Gb|-4-----4-4-----4-4-4-4-----4-4-4-7-------7-----7-7-7-7---7-7-7-7-|
Db|-2-----2-2-----2-2-2-2-----2-2-2-5-------5-----5-5-5-5---5-5-5-5-|
Ab|-2-----2-2-----2-2-2-2-----2-2-2-5-------5-----5-5-5-5---5-5-5-5-|
Db|-2-----2-2-----2-2-2-2-----2-2-2-5-------5-----5-5-5-5---5-5-5-5-|

gtr2
eb|----------10--------------10----/171717151515141414121212--------|
Bb|1212121012--12101212121012--1210/------------------------14b15b14p12|
Gb|-----------------------------------------------------------------|
Db|-----------------------------------------------------------------|
Ab|-----------------------------------------------------------------|
Db|-----------------------------------------------------------------|
gtr1
eb|-----------------------------------------------------------------|
Bb|-------------------------------------------------2b3b2b3b2h0-----|
Gb|-4-----4-4-----4-4-4-4-----4-4-4-2-----2-2-2-2---------------2h4-|
Db|-4-----4-4-----4-4-4-4-----4-4-4-2-----2-2-2-2-------------------|
Ab|-2-----2-2-----2-2-2-2-----2-2-2-0-----0-0-0-0-------------------|
Db|-----------------------------------------------------------------|


gtr2
eb|-----------10--------------10------------------------------------|
Bb|-1212121012--12101212121012--1210--------------------------------|
Gb|---------------------------------9bbbbbbbbbbbbbbbbbbbb11---------|
Db|-----------------------------------------------------------------|
Ab|-----------------------------------------------------------------|
Db|-----------------------------------------------------------------|
gtr1
eb|-----------------------------------------------------------------|
Bb|-----------------------------------------------------------------|
Gb|-4-----4-4-----4-4-4-4-----4-4-4-7-------------------------------|
Db|-2-----2-2-----2-2-2-2-----2-2-2-5-------------------------------|
Ab|-2-----2-2-----2-2-2-2-----2-2-2-5-------------------------------|
Db|-2-----2-2-----2-2-2-2-----2-2-2-5-------------------------------|
Comments