Subliminal - Inspire Chords & Tabs

 

Inspire Chords & Tabs

Subliminal Chords & Tabs

Version: 1 Type: Tab 0 ratings
1 star 2 stars 3 stars 4 stars 5 stars
comments

Inspire Tab

       INTRO    (GUITAR 1)
|------------------------------------------------------------------|
|------------------------------------------------------------------|   Subliminal - Inspire
|------------------------------------------------------------------|   ******* = pick slide
|-----2-----4-----2-----4----2---------2-----4-----2-----4-----5-4-|   ....... = palm mute
|-4-4---4-4---4-4---4-4---4-4--4---4-4---4-4---4-4---4-4---4-4-5-4-|
|------------------------------------------------------------------|
  ............................................................

                (GUITAR 2)
|------------------------------------------------------------------|
|------------------------------------------------------------------|  Pick slide second
|------------------------------------------------------------------|    time through.
|------------------------------------------------------------------|
|----------------------------------------------------PICK SLIDE----|
|-------------------------------------------------***************--|



      CHORUS    (GUITAR 1)
|------------------------------------------------|
|------------------------------------------------| Gradually release your
|-6-6-6--9-9-9-------------------6-6-6-6-6-6-6-6-|  palm mute on the C#
|-6-6-6--9-9-9------2-----4------6-6-6-6-6-6-6-6-|   power chord at the
|-4-4-4--7-7-7--4-4---4-4---4-4--4-4-4-4-4-4-4-4-|    end of the line.
|------------------------------------------------|
                ...............  ...(release pm)

                (Guitar 2)
|-----------------------------------|
|-----------------------------------|
|-6-6-6--9-9-9----------------------|
|-6-6-6--9-9-9--4-4-4--7-7-7--6-6-6-|
|-4-4-4--7-7-7--4-4-4--7-7-7--6-6-6-|
|---------------2-2-2--5-5-5--4-4-4-|



      VERSE     (Guitar 1)
|-----------------------------------------|
|-----------------------------------------|
|-6-6-6-6--9-9-9-9------------------------|
|-6-6-6-6--9-9-9-9--4-4-4-4--7-7-7--6-6-6-|
|-4-4-4-4--7-7-7-7--4-4-4-4--7-7-7--6-6-6-|
|-------------------2-2-2-2--5-5-5--4-4-4-|
  .....    .....    .....    ...    ...

                (GUITAR 2)
|---------------------------------------------------------------------|
|---------------------------------------------------------------------|
|-6-6-6-6-6-6-6-6--9-9-9-9-9-9-9-9------------------------------------|
|-6-6-6-6-6-6-6-6--9-9-9-9-9-9-9-9--4-4-4-4-4-4-4-4--7-7-7-7--6-6-6-6-|
|-4-4-4-4-4-4-4-4--7-7-7-7-7-7-7-7--4-4-4-4-4-4-4-4--7-7-7-7--6-6-6-6-|
|-----------------------------------2-2-2-2-2-2-2-2--5-5-5-5--4-4-4-4-|
  ...............  ...............  ...............  .......  .......

[ Tab from: http://www.guitartabs.cc/tabs/s/subliminal/inspire_tab.html ]
      BRIDGE    (Guitar 1)
|-----------------------------------------|
|-----------------------------------------|    Bass plays alone once, then guitar 1
|-----------1-1-1-1-2-1-------------------|      comes in and plays once with bass
|-2-2p1-2/4-------------4-4-4-4-6-7-7-7-6-|        then guitar 2 comes in, and 
|-----------------------------------------|             plays 2 more times
|-----------------------------------------|                (4 TOTAL)

                (GUITAR 2)
|-----------------------------------------|
|-----------------------------------------|
|-----------------------------------------|
|-------------------4---------------------|
|-4-4p3-4/6-7-7-7-7---7-6-----------------|
|-------------------------2-2-2-4-5-5-5-4-|


      SOLO      (GUITAR 1)
|----------------------------------------------------------------------------------|
|--------------------------------------------9-12-12b14-12b14r12-9-----------------|
|-11b13-11b13-11b13r11-9----------------9-11-----------------------11b13r11-9------|
|------------------------11--------9-11---------------------------------------11-9-|
|---------------------------9-9-11-------------------------------------------------|
|----------------------------------------------------------------------------------|

|---------------------------------------------------------------------9---------------|
|----------------------------------------------------------12-----------12-9-11b13b11-|
|----------------------------------------------------------11b13r11-9--------11b13b11-|
|-----------11p9----9-----------9-----------11-----------9----------------------------|
|------9h11------11-9------9h11--------9h11---------9h11------------------------------|
|-9h12----------------9h12--------9h12---------9h12-----------------------------------|

|--------------------------------------9h12-12-9h12-12-9h12-12-9h12-12-9h12-12-|
|------------------------------------------------------------------------------|
|-9------------------------9-11-9----------------------------------------------|
|---11-9-9h11p9-------9-11--------11-9-----------------------------------------|
|---------------11-11----------------------------------------------------------|
|------------------------------------------------------------------------------|

|-12b14-12b14-14b16-14b16-14b16r14-12-9------------------------------------------|
|---------------------------------------12-9-------------------------------------|
|--------------------------------------------11-9--------------------------------|
|-------------------------------------------------11-9-------------------9-10-11-|
|------------------------------------------------------11-9------9-10-11---------|
|-----------------------------------------------------------9-12-----------------|

               (GUITAR 2)
|---------------------------------------------|
|---------------------------------------------| Just play these power chords
|-6-6-6-6--9-9-9-9----------------------------|   while guitar 1 solos.
|-6-6-6-6--9-9-9-9--4-4-4-4--7-7-7-7--6-6-6-6-|       (PALM MUTED)
|-4-4-4-4--7-7-7-7--4-4-4-4--7-7-7-7--6-6-6-6-|
|-------------------2-2-2-2--5-5-5-5--4-4-4-4-|

          TAB BY: DREW KESTELL


Comments