Sublime - Wrong Way Chords & Tabs

 

Wrong Way Chords & Tabs

Sublime Chords & Tabs

Version: 1 Type: Chords 1 rating
1 star 2 stars 3 stars 4 stars 5 stars
comments

Wrong Way Chords

   
#----------------------------------PLEASE NOTE--------------------------------#
#This file is the author's own work and represents their interpretation of the#
#song. You may only use this file for private study, scholarship, or research.#
#-----------------------------------------------------------------------------#

Date: Tue, 19 May 1998 11:22:43 -0400 (EDT)
From: Greg Stewart 
Subject: s/sublime/wrong_way.crd

Song: Wrong Way
Artist: Sublime
CD: Sublime
Tab: Greg Stewart

I have seen several versions of this song in the archives, but I couldn't
really follow them. Here is a simple version that fits the recording:

Intro:
   E (w/random picking)            D
E---------------------------------  --------------------------------
B--9-------------------------------7--------------------------------
G--9-------------------------------7--------------------------------
D--9-------------------------------7--------------------------------
A--7-------------------------------5-------------------------------- 
E-------------------------------------------------------------------
   Annie's twelve years old in two more she'll be a whore  ...


Verse:
   A (on upstrokes)       G
E--5----5----5----5-------3----3----3----3--------
B--5----5----5----5-------3----3----3----3--------
G--6----6----6----6-------4----4----4----4--------
D--7----7----7----7-------5----5----5----5--------
A-------------------------------------------------
E-------------------------------------------------
  I gave her all that I   had to give ...

   A                      C
E--5----5----5----5-------8----8----8----8-- 
B--5----5----5----5-------8----8----8----8-- 
G--6----6----6----6-------9----9----9----9-- 
D--7----7----7----7------10---10---10---10--
A-------------------------------------------
E-------------------------------------------
 

   F#                           E
E--6----6----6----6-------------7----7----7----7-----------------
B--7----7----7----7-------------9----9----9----9-----------------
G--6----6----6----6-------------9----9----9----9-----------------
D----------------------------------------------------------------
A----------------------------------------------------------------
E----------------------------------------------------------------
  .

   B                           A
E--7----7----7----7-------------5----5----5----5-------
B--7----7----7----7-------------5----5----5----5-------
G--8----8----8----8-------------6----6----6----6-------
D--9----9----9----9-------------7----7----7----7-------
A------------------------------------------------------
E------------------------------------------------------
   
   

   B                                  D
E--7----7----7----7-------------------10---10---10---10--
B--7----7----7----7-------------------10---10---10---10--
G--8----8----8----8-------------------11---11---11---11--
D--9----9----9----9-------------------12---12---12---12—-
A--------------------------------------------------------
E--------------------------------------------------------
  
[ Tab from: http://www.guitartabs.cc/tabs/s/sublime/wrong_way_crd.html ]
   E                                    D
E--4----4----4----4---------------------5----5----5----5--------------
B--5----5----5----5---------------------7----7----7----7--------------
G--4----4----4----4---------------------7----7----7----7--------------
D---------------------------------------------------------------------
A---------------------------------------------------------------------
E---------------------------------------------------------------------
   
   

   A                        G
E--5----5----5----5---------3----3----3----3----
B--5----5----5----5---------3----3----3----3----
G--6----6----6----6---------4----4----4----4----
D--7----7----7----7---------5----5----5----5----
A-----------------------------------------------
E-----------------------------------------------
   

   A                           C
E--5----5----5----5------------8----8----8----8-- 
B--5----5----5----5------------8----8----8----8-- 
G--6----6----6----6------------9----9----9----9-- 
D--7----7----7----7-----------10---10---10---10—-
A------------------------------------------------
E------------------------------------------------
   

   F#                    E
E--6----6----6----6------7----7----7----7--
B--7----7----7----7------9----9----9----9--
G--6----6----6----6------9----9----9----9--
D------------------------------------------
A------------------------------------------
E------------------------------------------
  (horn solo, minimal guitar, play 4x)

   B                           A
E--7----7----7----7------------5----5----5----5-----------
B--7----7----7----7------------5----5----5----5-----------
G--8----8----8----8------------6----6----6----6-----------
D--9----9----9----9------------7----7----7----7-----------
A---------------------------------------------------------
E---------------------------------------------------------
  

   B                     D
E--7----7----7----7------10---10---10---10--
B--7----7----7----7------10---10---10---10--
G--8----8----8----8------11---11---11---11--
D--9----9----9----9------12---12---12---12—-
A-------------------------------------------
E-------------------------------------------


   E                              D
E--4----4----4----4---------------5----5----5----5----------------
B--5----5----5----5---------------7----7----7----7----------------
G--4----4----4----4---------------7----7----7----7----------------
D-----------------------------------------------------------------
A-----------------------------------------------------------------
E-----------------------------------------------------------------
 


Outro:
   B                              A
E--7----7----7----7---------------5----5----5----5-----
B--7----7----7----7---------------5----5----5----5-----
G--8----8----8----8---------------6----6----6----6-----
D--9----9----9----9---------------7----7----7----7-----
A------------------------------------------------------
E------------------------------------------------------


B                           D
E--7----7----7----7---------10---10---10-----
B--7----7----7----7---------10---10---10-----
G--8----8----8----8---------11---11---11-----
D--9----9----9----9---------12---12---12—----
A--------------------------------------------
E--------------------------------------------
 


Notes:
- You can see that the Verse repeats. The chord patterns are:
  A G, F# E, B A, E D, and this is played twice.

- I separated the Outro because it doesn’t follow the pattern.
  You’d expect to play A G at that point.

- I don’t usually play all the strings I’ve indicated here. I
  find just playing the last two strings sounds good enough.

Comments