Sublime - What I Got Chords & Tabs

 

What I Got Chords & Tabs

Sublime Chords & Tabs

Version: 5 Type: Tab 1 rating
1 star 2 stars 3 stars 4 stars 5 stars
comments

What I Got Tab

   
Sublime
What I Got
Sublime/1996

This song is in drop D. (DADGBE)


Intro (riff played throughout song)

D           G           D          G  
------------------------------------------------
------3-----------3----------3---------3--------
----2---2-------0---0------2---0-----0---0------
--0-------0-----------0--0-------0---------0----
------------------------------------------------
--------------3--------------------3------------


Solo riff (played several times throughout the song)
[ Tab from: http://www.guitartabs.cc/tabs/s/sublime/what_i_got_tab_ver_5.html ]
~=slide(slides started one fret before note, ~7= 6 to 7)
h=hammer-on
p=pull-off
b=bend
w=wobble the string
-------------------------------------10-7-7----8p7--------
---------6---------~7-5----------7h10-------10-----8-9b10-
----5-~7---~7-6-w5-~7-5-~9-7-7h9--------------------------
-~7---------------------~9-7------------------------------
----------------------------------------------------------
----------------------------------------------------------

Well that's about it. Check out my website, 
http://wwwgoddbands.homestead.com
Comments