Sublime - What I Got Chords & Tabs

 

What I Got Chords & Tabs

Sublime Chords & Tabs

Version: 3 Type: Tab 7 ratings
1 star 2 stars 3 stars 4 stars 5 stars
comments

What I Got Tab

What I Got
Sublime

Intro
|--------------------------------|
|-------3----------------3-------|
|----2-----2----------0-----0----|
|-0-----------0----------------0-|
|--------------------------------|
|------------------3-------------|
[ Tab from: http://www.guitartabs.cc/tabs/s/sublime/what_i_got_tab_ver_3.html ]
Solo
|----------------------------------------------------|
|----------------------------------------------------|
|-------------10-----------------11---9\\7--7---11-12-|
|-----10--12------12--10--10h12--12--10----9---------|
|-12-------------------------------------------------|
|----------------------------------------------------|

|-------10-----------------------|
|-10-12----12-12-10-13-12-10-----|
|----------------------------12b-|
|--------------------------------|
|--------------------------------|
|--------------------------------|
Comments