Sublime - What I Got Chords & Tabs

 

What I Got Chords & Tabs

Sublime Chords & Tabs

Version: 2 Type: Tab 1 rating
1 star 2 stars 3 stars 4 stars 5 stars
comments

What I Got Tab

   Best and correct what i got solo-
 
---------------------------------10p7--8p7--8p7---e
-------6----------7-5--------7h10---------10---10-B
---5-7---7-5-5h7--7-5-77--7h9---------------------G
-7--------------------77--------------------------D
--------------------------------------------------A
--------------------------------------------------E

--------------------------------------------------e
-8b9backto8-6-8--6--------------------------------B
-------------------7------------------------------G
--------------------------------------------------D
--------------------------------------------------A
--------------------------------------------------E
[ Tab from: http://www.guitartabs.cc/tabs/s/sublime/what_i_got_tab_ver_2.html ]
Comments