Sublime - What I Got Chords & Tabs

 

What I Got Chords & Tabs

Sublime Chords & Tabs

Version: 13 Type: Tab 0 ratings
1 star 2 stars 3 stars 4 stars 5 stars
comments

What I Got Tab

E|----------------------------------------
B|--------------6-------------7--5--3-3---
G|-------5-7------7-5-5h7-----7--5--4-4---
D|---/7-----------------------------------
A|----------------------------------------
E|----------------------------------------
[ Tab from: http://www.guitartabs.cc/tabs/s/sublime/what_i_got_tab_ver_13.html ]
     
E------------------12---------------------------------------------------|
B----------10h12--------12-12p10--13-12--10-----------------------------|
G--11h12--------------------------------------12b13r12p10--12-10--------|
D------------------------------------------------------------------12---|
A-----------------------------------------------------------------------|
E-----------------------------------------------------------------------|
Comments