Sublime - What Happened Chords & Tabs

 

What Happened Chords & Tabs

Sublime Chords & Tabs

Version: 1 Type: Bass Tab 0 ratings
1 star 2 stars 3 stars 4 stars 5 stars
comments

What Happened Bass Tab

I'm such a dumbshit, that tab for What Happend is totally wrong.  Here is
how it should go:
Song(s):What Happend?
Tuning(s):Normal

Group(s):Sublime                        Tabbed by aaron Ipock
(aipock@roar.gfalls.wednet.edu)
This was typed from memory, so it may not
 be totally acurate, but it's enough.
        Intro
G|------55------------------------------------------------------------|
D|--3535--020--------------------------Reapeat till the change--------|
A|33------------------------------------------------------------------|
E|--------------------------------------------------------------------|

        Just before the vocals
G|--------------------------------------------------------------------|
D|--------------------------------------------------------------------|
A|--------------------------------------------------------------------|
E|888-057-888x3-8888--------------------------------------------------|

        Verse
G|--------------------------------------------------------------------|
D|--------------------------------------------------------------------|
A|--------------------------------------------------------------------|
E|77777-44444-77777-44444x4-------------------------------------------|
[ Tab from: http://www.guitartabs.cc/tabs/s/sublime/what_happened_btab.html ]
        "Iknow I did something/boy what could it be?...
G|--------------------------------------------------------------------|
D|--------------------------------------------------------------------|
A|------77777--------55555-99999-77777-55555555-----------------------|
E|55555--------55555--------------------------------------------------|

        This part sounds like "Tequila!" Play stacatto style
G|-7--5---------------------------------------------------------------|
D|5-55-5-7-5-997-9----------------------------------------------------|
A|--------------------------------------------------------------------|
E|--------------------------------------------------------------------|

This is the part before the saxophone...
G|--------------------------------------------------------------------|
D|--------------------------------------------------------------------|
A|--------------888-057-888x2-----------------------------------------|
E|888-057-888x4--------------888-057-888------------------------------|

G|--------------------------------------------------------------------|
D|-66-77-9----44-55-7-------------------------------------------------|
A|7---------5---------55555-33333-------------------------------------|
E|--------------------------------------------------------------------|
        Guitar solo...
G|--------------------------------------------------------------------|
D|--------------------------------------------------------------------|
A|--------------------------------------------------------------------|
E|888-057-888---------------------------------------------------------|

        Play the verse, then the tequila part couple more times.

+=+=+=+=+=+=+=+=+=+=+=
+Favor de no molestar=
+=+=+=+=+=+=+=+=+=+=+=




Comments