Sublime - Under My Voodoo Chords & Tabs

 

Under My Voodoo Chords & Tabs

Sublime Chords & Tabs

Version: 3 Type: Tab 0 ratings
1 star 2 stars 3 stars 4 stars 5 stars
comments

Under My Voodoo Tab

Under my Voodoo
Sublime
Tabbed by: guitarist01mike
 

intro and first verse:

|----------------------------------------------------------------|
|----------------------------------------------------------------|
|----9-11/13\11--9-----------------------------------------------|
|-11---------------11-9-7-9/11\9-7------------------------7/9--7~|
|-----------------------------------7/9-9-7-7/9-9-7-7/9-7--------|
|----------------------------------------------------------------|

                     
|----------------------------------------------|
|--10/12\10-8---------8------------------------|
|-------------9-9-7-9---9-7-9-9/11\9-7---7-9~--|
|--------------------------------------9-------|
|----------------------------------------------|
|----------------------------------------------|

|------------------------------------------------------------|
|--------8---------8-10/11\10-8---8-10-8-10-10/12-12-12-12\--|
|--7-9-7---9-9-7-9--------------9----------------------------|
|------------------------------------------------------------|
|------------------------------------------------------------|
|------------------------------------------------------------|

|--------------------------------------------------|
|-----------------------------8--------------------|
|-------7-9---------------7-9---9-9-9-7-9-7-9/11\9-|
|---7/9----------7-5-7-9---------------------------|
|-----------7-9------------------------------------|
|--------------------------------------------------|

|----------------------------------------------------|
|-----------8/10\8--------------8-------8-----8-8-8--|
|--7---7-9---------9-7-9----7-9---9-7-9---7-9--------|
|----9-----------------------------------------------|
|------------------------10--------------------------|
|----------------------------------------------------|
 





chorus: second verse:

|-----------------------------|
|-----------------------------|
|--12-11-10-9----12-14-16-9~--|
|--12-11-10-9----12-14-16-9~--|
|--10--9--8-7----10-12-14-7~--|
|-----------------------------|

|---------------------------------------------------------------|
|--------------------------8--------------------------------8---|
|--9-7---7-9--------9-7-9----9-9~---9-7-9-7-------7-9-7-9-7---9-|
|------9-----7-5----------------------------9-7-9---------------|
|----------------7~---------------------------------------------|
|---------------------------------------------------------------|
[ Tab from: http://www.guitartabs.cc/tabs/s/sublime/under_my_voodoo_tab_ver_3.html ]
|-------------------------------------|
|--10-8------8------------8-----------|
|--------9-9---9--9-7-9-7---9-----7---|
|-----------------------------7-9-----|
|-------------------------------------|
|-------------------------------------|

|---------------------------------------------------------------|
|-10/12\10--8-----8-8---8-8---8-8---8---8-------8~---8---8----8~|
|-------------9-7-----7-----7-----9---9---9-7-9----9---9---9~---|
|---------------------------------------------------------------|
|---------------------------------------------------------------|
|---------------------------------------------------------------|

 
chorus: guitar solo:

|----------------------------------15b--15b--15-----------------|
|--8~-------------------------------------------17\15--17\15--17|
|-------12-11-10-9----12-14-16-9~-------------------------------|
|-------12-11-10-9----12-14-16-9~-------------------------------|
|-------10--9--8-7----10-12-14-7~-------------------------------|
|---------------------------------------------------------------|
 
|---------------------------------------------------------------|
|-15-17----15---------------------------------------------------|
|-------16----14-16-12--14\12-----------12----12-12--------12-12|
|-----------------------------14--12/14----14-------12-14-----12|
|---------------------------------------------------------------|
|---------------------------------------------------------------|
 



|---------------------------------------------------------------|
|---------------------------------------------------------------|
|--12----12-12-12~--16b-16-14-------16b-16-16-16-14-14----------|
|-----14----------------------16-12--------------------16-16-12-|
|---------------------------------------------------------------|
|---------------------------------------------------------------|

|--15b-12-15b-12-15b-12-15b-12-15b-15b-15b-15b-12~--------------|
|---------------------------------------------------------------|
|---------------------------------------------------------------|
|---------------------------------------------------------------|
|---------------------------------------------------------------|
|---------------------------------------------------------------|
 
chorus: repeat until end of song:

|-------------------------------------------------------|
|--------------------------------8-X-X-8-X-8-8-X-8------|
|--12-11-10-9----12-14-16-9------9-X-X-9-X-9-9-X-9------|
|--12-11-10-9----12-14-16-9------9-X-X-9-X-9-9-X-9------|
|--10--9--8-7----10-12-14-7------7-X-X-7-X-7-7-X-7------|
|-------------------------------------------------------|

ENJOY!  
This is actually my first tab.  So if I screwed up, SORRY!!!I noticed 
that this song wasn't on here so I posted it! Questions,Comments, email 
me! grmike15@hotmail.com  THANKS
Comments