Sublime - Under My Vodoo Chords & Tabs

 

Under My Vodoo Chords & Tabs

Sublime Chords & Tabs

Version: 1 Type: Tab 0 ratings
1 star 2 stars 3 stars 4 stars 5 stars
comments

Under My Vodoo Tab

This tab is 100% correct!!

b=bend ~=vibrato /=slide



|---------------------------------------------|
|---------------------------------------------|
|----9-11b-9----------------------------------|
|-11--------11----9-7-9b-7-------------9-7----|
|--------------------------9--979-979-9-------|
|---------------------------------------------|


|---------------------------------------------------|
|---------------------------------------------------|
|--14b-12-------------------------------------------|
|--------14---14-12-14--14--12-14-14b-12----12-14---|
|---------------------12------------------14--------|
|---------------------------------------------------|

[ Tab from: http://www.guitartabs.cc/tabs/s/sublime/under_my_vodoo_tab.html ]
|---------------------------------------------------------------------|
|---------------------------------------------------------------------|
|----------12----------------12-14-14b-14-12---12-14-12-14-14b-14b~~--|
|-12-14-12----14-12h14--12-14----------------14-----------------------|
|---------------------------------------------------------------------|
|---------------------------------------------------------------------|


|---------------------------------------------------------------------|
|------3-5------------------8-----------------------------------------|
|--2h4------------------7-9-------------------------------------------|
|-----------2-4-7-5-7/9-----------------------------------------------|
|---------------------------------------------------------------------|
|---------------------------------------------------------------------|


Enjoy......visit my website....http://phosphorecentsecrets.5u.com
Comments