Sublime - Steppin Razor Chords & Tabs

 

Steppin Razor Chords & Tabs

Sublime Chords & Tabs

Version: 1 Type: Tab 0 ratings
1 star 2 stars 3 stars 4 stars 5 stars
comments

Steppin Razor Tab

                                                                                            

SONG:  Steppin Razor
ARTIST:  Sublime
ALBUM:  Robin the Hood
EMAIL: HBJoeNOC@aol.com

	This is the correct way to play this song.  Well as far as 
I remeber, I'm to lazy to find the CD to make sure I got it right.  
But I've been playing this song for so long I don't need to second 
guess myself.  I KNOW THIS IS RIGHT.....AT LEAST IT SOUNDS PRETTY DANG CLOSE.

PLAY WITH A LOT OF REVERB......YOU CAN EVEN ADD A LITTLE CHORUS FOR A MORE TRIPPY EFFECT !!!
  .........and play a few of the intro notes a little softer than the rest of the song !!!

INTRO:
e----------------------------------------12---------12-----------
B-----14--14--14--14--14--14--14--14----------14---------14------
G----------------------------------------------------------------
D----------------------------------------------------------------
A----------------------------------------------------------------
E----------------------------------------------------------------

[ Tab from: http://www.guitartabs.cc/tabs/s/sublime/steppin_razor_tab.html ]
e-12---------------------------------------12---------12---------
B-----14--12/14--14/0----14--14--14--14--------14---------14-----
G----------------------------------------------------------------
D----------------------------------------------------------------
A----------------------------------------------------------------
E----------------------------------------------------------------


e-12-------------------------------------------------------------
B----14--12--11~~------------------------------------------------
G----------------------------------------------------------------
D----------------------------------------------------------------
A----------------------------------------------------------------
E----------------------------------------------------------------

SOLO PART:
e--14-12-----------12--------------------------------------------
B--------12b13--12----14--12b13-11/...?------------------------------
G----------------------------------------------------------------
D----------------------------------------------------------------
A----------------------------------------------------------------
E----------------------------------------------------------------


After that part of the solo it is hard to make out the rest of the song....I mean it was
only recorded on an eight track so what should we expect.  This should make you
and your friends happy.  Email me with whacha think. LATE!!!
Comments