Sublime - Smoke Two Joints Chords & Tabs

 

Smoke Two Joints Chords & Tabs

Sublime Chords & Tabs

Version: 1 Type: Tab 1 rating
1 star 2 stars 3 stars 4 stars 5 stars
comments

Smoke Two Joints Tab

   
#----------------------------------PLEASE NOTE---------------------------------#
#This file is the author's own work and represents their interpretation of the #
#song. You may only use this file for private study, scholarship, or research. #
#------------------------------------------------------------------------------#

Sublime - smoke two joints
Tabbed by Ty Gady

Intro (strum real fast)  listen to the song and you will get
the hang of it. It is really fun when you get this down.

the muted parts you actually strum like 5 or 6 times each

-5-x-x-5-x-x-5-x-x-5-x-x-5-x-x-5-x-x--------------------------
-5-x-x-5-x-x-5-x-x-6-x-x-6-x-x-6-x-x-------play twice---------
-5-x-x-5-x-x-5-x-x-7-x-x-7-x-x-7-x-x--------------------------
--------------------------------------------------------------
--------------------------------------------------------------
--------------------------------------------------------------

--3-----4-----5-----------------------------------------------
--3-----4-----5-----------------------------------------------
--4-----5-----6-----------------------------------------------
--5-----6-----7-----------------------------------------------
--------------------------------------------------------------
--------------------------------------------------------------


gradually bend
-------------------5p3----------------------------------------
------------------------5--3----------------------------------
----7b------------------------5--3----------------------------
-------------------------------------5--3(hold)---------------
--------------------------------------------------------------
--------------------------------------------------------------


--8-8-8-----7---8p7p5-----------------------------------------
--------5-5---------------------------------------------------
--------------------------------------------------------------
---------------------------5-----6-----7----------------------
---------------------------5-----6-----7----------------------
---------------------------3-----4-----5----------------------


chords for verse:
[ Tab from: http://www.guitartabs.cc/tabs/s/sublime/smoke_two_joints_tab.html ]
  A         G           F            G    A
--5---------3-----------1------------3----5-------------------
--5---------3-----------1------------3----5-------------------
--6---x4----4----x4-----2----x4------4----6-------------------
--7---------5-----------3------------5----7-------------------
--------------------------------------------------------------
--------------------------------------------------------------

then again:
--------------------------------------------------------------
--------------------------------------------------------------
--------------------------------------------------------------
---5---6---7--------------------------------------------------
---5---6---7--------------------------------------------------
---3---4---5--------------------------------------------------


little solo:

--8-8-8-----7--8p7p5----------------------------------19(h)---
--------5-5---------------------------------------------------
-----------------------7b--------do this twice----------------
--------------------------------------------------------------
--------------------------------------------------------------
--------------------------------------------------------------
 there is a little bit of feedback or something but you can just
hit harmonics on the nineteenth fret and it sounds pretty close:
that's the 19(h)


-----------------------------------------
-----------------------------------------then do the same thing
-----------------------------------------but power chords starting
----5-/--7---7---7---7-------------------on the A string
----5-/--7---7---7---7-----repeat once---
----3-/--5---5---5---5-------------------


Then right after that:
-------------------------------------------------------------
-------------------------------------------------------------
---------------5---------------------------------------------
--------5-----------7---------5----6---7---------------------
--5h7-------7-----------------5----6---7---------------------
------------------------------3----4---5---------------------


h = hammer  p = pull off   / = slide







That's about it.  If you can figure out anything i missed please 
tell me.  Good luck and enjoy.  Sublime rules!

From Hobbes72599@aol.com
Comments