Sublime - Santeria Chords & Tabs

 

Santeria Chords & Tabs

Sublime Chords & Tabs

Version: 8 Type: Tab 0 ratings
1 star 2 stars 3 stars 4 stars 5 stars
comments

Santeria Tab

   
=-=-=-=-=-=-=-=-=-=-=-=-=-=
Sublime
Santeria
Sublime
Tabbed by Leandro Koren
leandro_koren@yahoo.com.ar
=-=-=-=-=-=-=-=-=-=-=-=-=-=

Intro:
It's a mix between the two guitars.

     E5                    Ab             Dbm             B
E|-|--------------------|--------------|---------------|-------------|-|
B|-|--------------------|--------------|------------5--|-------------|-|
G|-|----9--------9------|-----5----5---|-------6-4h6---|--8h9-8--11--|-|
D|-|---9-9------9-9-----|------4----4--|---------------|-------------|-|
A|-|--7-----7-7-----7/--|---6-----6----|--4-4----------|-------------|-|
e|-|--------------------|--4-----------|---------------|-------------|-|

Just the Rhythm guitar intro.

E|-|----------------------------------------------|-|
B|-|-----------------------------4----------------|-|
G|-|----9--------9----(9)\---------5-----5--------|-|
D|-|--9---9-----9--9-9(9)\-----------6-----6-6----|-|
A|-|7-------7-7--------7-\-----6-------6-------4--|-|
e|-|-------------------------4--------------------|-|

E|-|-----------------------------------------------|-|
B|-|------------5-------(5)/--------7--------------|-|
G|-|------6-------6---6-(6)/----------8-----8------|-|
D|-|----6---6-------6----6-/------------9-----9-9--|-|
A|-|--4------------------4-/------9-------9--------|-|
e|-|----------------------------7------------------|-|

Verse:

   E                         Ab
I don't practice santeria. I ain't got no crystal ball,
        Dbm                             B
Well, I had a million dollars but I'd, I'd spend it all.
   E                           Ab
If I could find that Heina and that Sancho she's found,
     Dbm                           B
Well I'd pop a cap in Sancho and I'd slap her down.

Chorus:

      A          B          E          Dbm
E|-|--5---5---|--7---7---|----------|-------|-|
B|-|---5---5--|---7---7--|--9---7---|--5----|-|
G|-|----6-----|----8-----|---9---8--|---6---|-|
D|-|-----7----|-----9----|----9-----|----6--|-|
A|-|----------|----------|----------|-------|-|
e|-|----------|----------|----------|-------|-|

 A    B            E    Dbm
All I really wanna know my baby,
 A    B            E     Dbm
All I really wanna say I can't define,
 A   B         E
It's love that I need,
       Dbm               E
But my soul will have to.

Verse:
Like the other verse.
[ Tab from: http://www.guitartabs.cc/tabs/s/sublime/santeria_tab_ver_8.html ]
Wait 'till I get back, find a Heina of my own
Daddy's gonna love one and all
I feel the break, feel the break, feel the break
And I gotta live it up
Oh yeah, uh huh, well I swear that I

Chorus:
Like the other chorus.

All I really wanna know my baby
All I really wanna say I can't define
That love will make it go
My soul will have to...

Solo: With verse chords.

      E5
E|-|-----------------------------------------------------------------------------------|-|
B|-|-----------------------------------------------------------------------------------|-|
G|-|--/9------------9---11b--9-8--8-6-8h9-8----6--4h6h4--------------------------------|-|
D|-|--/9-------9-11-------------------------------------6-4h6h4/2--2h4h2---------------|-|
A|-|--/7--7/11-----------------------------------------------------------4h2-4h2--2-2--|-|
e|-|-----------------------------------------------------------------------------4-----|-|

E|-|-----------------0----------------------------------------|-|
B|-|--------------------12b13-14-12---------------------------|-|
G|-|-----------4h6-44---------------13-11h13p11-9----9--------|-|
D|-|--------456-----------------------------------11---11-9---|-|
A|-|-----234--------------------------------------------------|-|
e|-|--234-----------------------------------------------------|-|

E|-|-------------------------------------9------------9-------------|-|
B|-|-------------------------------9------9------------9------------|-|
G|-|-------------------------------11b13---9-11b13------9-11b13r11--|-|
D|-|--11-9-------------10-----10------------------------------------|-|
A|-|-------11-9-7--/11----/11---------------------------------------|-|
e|-|----------------------------------------------------------------|-|

Chorus:
Like the others chorus.

All I really wanna say my baby
All I really wanna say is I've got mine
And I'll make it yes I'm comin' up
Tell Sanchito that if

Verse:
Like the others verses.

He knows what is good for him he best go run and hide
Daddy's got a new 45
And I won't think twice to stick that barrel straight down Sancho's throat
Believe me when I say that I've got something for his punk ass

Chorus:
Like the others chorus.

Well I really wanna know my baby
What I really wanna say is there's just one way back
And I'll make it, yeah
My soul will have to wait

End: E | Eb | Db | B | A | B | E(Open position)

E|-|--X---X---X---X---X---X---0--|-|
B|-|--9---8---6---4---2---4---0--|-|
G|-|--9---8---6---4---2---4---1--|-|
D|-|--9---8---6---4---2---4---2--|-|
A|-|--7---6---4---2---0---2---2--|-|
e|-|--X---X---X---X---X---X---0--|-|
Comments