Sublime - Santeria Chords & Tabs

 

Santeria Chords & Tabs

Sublime Chords & Tabs

Version: 7 Type: Tab 0 ratings
1 star 2 stars 3 stars 4 stars 5 stars
comments

Santeria Tab

   
Intro, also repeated during verse. Different Order during Chorus
        E                       Ab
e--------------------    e----------------
b--------------------    b---4------------
g-----9-------9-9----    g-----5----------
d---9---9---------9--    d-------6--------
a-7-------7-7-------7    a-----------6-2-4
e--------------------    e-4-------4------

        Dbm                     B
e--------------------    e---2------------
b-----------5--------    b-----4----------
g-----6-------6------    g-------4--------
d---6---6-------6----    d----------------
a-4-------4----------    a-2-------2------
e--------------------    e----------------
[ Tab from: http://www.guitartabs.cc/tabs/s/sublime/santeria_tab_ver_7.html ]
Solo, as close as I could
|------------------------------------------------------------|
|------------------------------------------------------------|
|-----------9-/13-11-9-8--8p6-8-8b9r8--6-4h6p4---------------|
|------9-11------------------------------------6-4/2~-4p2----|
|7-/11---------------------------------------------------h4--|
|------------------------------------------------------------|

     *=============
|------------------------------------------------------------|
|-----------------4----12b13-14-12---------------------------|
|-----------------4----------------13-11h13p11-9----9--------|
|2-----------2-4---------------------------------11---11-9---|
|--4-----2-4-------------------------------------------------|
|----234-----------------------------------------------------|

===========*
|-----------------------------------9------------9-----------|
|-----------------------------9------9------------9----------|
|-----------------------------11b13---9-11b13------9-11b13r11|
|11-9-------------10-----10----------------------------------|
|-----11-9-7--/11----/11-------------------------------------|
|------------------------------------------------------------|
Comments