Sublime - Santeria Chords & Tabs

 

Santeria Chords & Tabs

Sublime Chords & Tabs

Version: 5 Type: Tab 0 ratings
1 star 2 stars 3 stars 4 stars 5 stars
comments

Santeria Tab

Title: santeria
Artist: sublime
Album: sublime
Date: who cares
E  -----------------------------------------------------------------------------------------------------------------------
B  -----------------------------------------------------------------------------------------------------------------------
G  --------------9--------------------------9---------------------------------------------------------------------------
D  -------9------------9--------------------------9-----9-------------------------------------------------------------
A  7--------------------------7-----7--------------------------7------------------------------------------------------
E  -----------------------------------------------------------------------------------------------------------------------

E  -----------------------------------------------------------------------------------------------------------------------
B  -------4------------4------------------------------------------------------------------------------------------------
G  --------------5------------5-----------------------------------------------------------------------------------------
D  -----------------------------------6----------------------------------------------------------------------------------
A  ------------------------------------------6---------------------------------------------------------------------------
E  4---------------------------------------------------------------------------------------------------------------------

E  -----------------------------------------------------------------------------------------------------------------------
B  -----------------------------------5----------------------------------------------------------------------------------
G  --------------6--------------------------6------------6-------------------------------------------------------------
D  -------6------------6--------------------------6--------------------------------------------------------------------
A  4--------------------------4-----------------------------------------------------------------------------------------
E  -----------------------------------------------------------------------------------------------------------------------

E  -----------------------------------------------------------------------------------------------------------------------
B  -------7--------------------------------------------------------------------------------------------------------------
G  --------------8-------------------------------------------------------------------------------------------------------
D  ---------------------9------------------------------------------------------------------------------------------------
A  -----------------------------------------------------------------------------------------------------------------------
E  7--------------------------7-----------------------------------------------------------------------------------------

E  7-----7-----7-----7-----4-----4-----4-----4-----4-----4-----4-----4-----7-----7-----7-----7------------
B  9-----9-----9-----9-----4-----4-----4-----4-----5-----5-----5-----5-----7-----7-----7-----7------------
G  9-----9-----9-----9-----5-----5-----5-----5-----6-----6-----6-----6-----8-----8-----8-----8------------
D  -----------------------------------------------------------------------------------------------------------------------
A  -----------------------------------------------------------------------------------------------------------------------
E  -----------------------------------------------------------------------------------------------------------------------

E  7-----7-----7-----7-----4-----4-----4-----4-----4-----4-----4-----4-----7-----7-----7-----7------------
B  9-----9-----9-----9-----4-----4-----4-----4-----5-----5-----5-----5-----7-----7-----7-----7------------
G  9-----9-----9-----9-----5-----5-----5-----5-----6-----6-----6-----6-----8-----8-----8-----8------------
D  -----------------------------------------------------------------------------------------------------------------------
A  -----------------------------------------------------------------------------------------------------------------------
E  -----------------------------------------------------------------------------------------------------------------------

E  5-------------------7------------------------------------------------------------------------------------------------
B  -------5-------------------7------------9-------------------7------------5----------------------------------------
G  --------------6-------------------8------------9------------8-------------------6---------------------------------
D  -----------------------------------------------------------------------------------------------------------------------
A  --------------------------------------------------------6------------4-----------------------------------------------
E  -----------------------------------------------------------------------------------------------------------------------

E  5-------------------7------------------------------------------------------------------------------------------------
B  -------5-------------------7------------9-------------------7-----5------------5---------------------------------
G  --------------6-------------------8------------9--------------------------6----------------------------------------
D  -----------------------------------------------------------------------------------------------------------------------
A  --------------------------------------------------------6-------------------------------------------------------------
E  -----------------------------------------------------------------------------------------------------------------------

E  5-------------------7------------------------------------------------------------------------------------------------
B  -------5-------------------7------------9-------------------7-------------------5---------------------------------
G  --------------6-------------------8------------9-------------------8-------------------6--------------------------
D  -----------------------------------------------------------------------------------------------------------------------
A  --------------------------------------------------------6-------------------4----------------------------------------
E  -----------------------------------------------------------------------------------------------------------------------

E  5-------------------7------------------------------------------------------------------------------------------------
B  -------5-------------------7-----------------------------------------------------------------------------------------
G  --------------6-------------------8----------------------------------------------------------------------------------
D  -----------------------------------------------------------------------------------------------------------------------
A  -----------------------------------------------------------------------------------------------------------------------
E  -----------------------------------------------------------------------------------------------------------------------


E  7-----7-----7-----7-----4-----4-----4-----4-----4-----4-----4-----4-----7-----7-----7-----7------------
B  9-----9-----9-----9-----4-----4-----4-----4-----5-----5-----5-----5-----7-----7-----7-----7------------
G  9-----9-----9-----9-----5-----5-----5-----5-----6-----6-----6-----6-----8-----8-----8-----8------------
D  -----------------------------------------------------------------------------------------------------------------------
A  -----------------------------------------------------------------------------------------------------------------------
E  -----------------------------------------------------------------------------------------------------------------------

E  7-----7-----7-----7-----4-----4-----4-----4-----4-----4-----4-----4-----7-----7-----7-----7------------
B  9-----9-----9-----9-----4-----4-----4-----4-----5-----5-----5-----5-----7-----7-----7-----7------------
G  9-----9-----9-----9-----5-----5-----5-----5-----6-----6-----6-----6-----8-----8-----8-----8------------
D  -----------------------------------------------------------------------------------------------------------------------
A  -----------------------------------------------------------------------------------------------------------------------
E  -----------------------------------------------------------------------------------------------------------------------

E  5-------------------7------------------------------------------------------------------------------------------------
B  -------5-------------------7------------9-------------------7------------5----------------------------------------
G  --------------6-------------------8------------9------------8-------------------6---------------------------------
D  -----------------------------------------------------------------------------------------------------------------------
A  --------------------------------------------------------6------------4-----------------------------------------------
E  -----------------------------------------------------------------------------------------------------------------------

E  5-------------------7------------------------------------------------------------------------------------------------
B  -------5-------------------7------------9-------------------7-----5------------5---------------------------------
G  --------------6-------------------8------------9--------------------------6----------------------------------------
D  -----------------------------------------------------------------------------------------------------------------------
A  --------------------------------------------------------6-------------------------------------------------------------
E  -----------------------------------------------------------------------------------------------------------------------

E  5-------------------7------------------------------------------------------------------------------------------------
B  -------5-------------------7------------9-------------------7-------------------5---------------------------------
G  --------------6-------------------8------------9-------------------8-------------------6--------------------------
D  -----------------------------------------------------------------------------------------------------------------------
A  --------------------------------------------------------6-------------------4----------------------------------------
E  -----------------------------------------------------------------------------------------------------------------------
[ Tab from: http://www.guitartabs.cc/tabs/s/sublime/santeria_tab_ver_5.html ]
E  5-------------------7------------------------------------------------------------------------------------------------
B  -------5-------------------7-----------------------------------------------------------------------------------------
G  --------------6-------------------8----------------------------------------------------------------------------------
D  -----------------------------------------------------------------------------------------------------------------------
A  -----------------------------------------------------------------------------------------------------------------------
E  -----------------------------------------------------------------------------------------------------------------------

E  -----------------------------------------------------------------------------------------------------------------------
B  -----------------------------------------------------------------------------------------------------------------------
G  -----------------------------------9-----13-----11-----9-----8-----8-----6-----8---------------------------------
D  ---------------------9-----11-----------------------------------------------------------------------------------------
A  -------9-----11-------------------------------------------------------------------------------------------------------
E  12---------------------------------------------------------------------------------------------------------------------

E  -----------------------------------------------------------------------------------------------------------------------
B  -----------------------------------------------------------------------------------------------------------------------
G  6-----6-----4-------------------------------------------------------------------------------------------------------
D  ---------------------6-----4-----2--------------------------2-----4-----------------------------------------------
A  ------------------------------------------4-----2-----4-------------------------------------------------------------
E  -----------------------------------------------------------------------------2-----2-----4--------------------------

E  -----------------------------------------------------------------------------------------------------------------------
B  ----------------------------12-----9----------------------------------------------------------------------------------
G  ------------------------------------------11-----8----------------------------------------9--------------------------
D  --------------2-----4---------------------------------11-----9------------9-----11---------------------------------
A  2-----4-------------------------------------------------------------11-----------------------------------------------
E  -----------------------------------------------------------------------------------------------------------------------

E  -----------------------------------9--------------------------9------------------------------------------------------
B  ------------------------------------------9--------------------------9-----------------------------------------------
G  -------9------------9-----11-------------------9-----11-------------------9-----11---------------------------------
D  11------------9-------------------------------------------------------------------------------------------------------
A  -----------------------------------------------------------------------------------------------------------------------
E  -----------------------------------------------------------------------------------------------------------------------

E  5-------------------7------------------------------------------------------------------------------------------------
B  -------5-------------------7------------9-------------------7------------5----------------------------------------
G  --------------6-------------------8------------9------------8-------------------6---------------------------------
D  -----------------------------------------------------------------------------------------------------------------------
A  --------------------------------------------------------6------------4-----------------------------------------------
E  -----------------------------------------------------------------------------------------------------------------------

E  5-------------------7------------------------------------------------------------------------------------------------
B  -------5-------------------7------------9-------------------7-----5------------5---------------------------------
G  --------------6-------------------8------------9--------------------------6----------------------------------------
D  -----------------------------------------------------------------------------------------------------------------------
A  --------------------------------------------------------6-------------------------------------------------------------
E  -----------------------------------------------------------------------------------------------------------------------

E  5-------------------7------------------------------------------------------------------------------------------------
B  -------5-------------------7------------9-------------------7-------------------5---------------------------------
G  --------------6-------------------8------------9-------------------8-------------------6--------------------------
D  -----------------------------------------------------------------------------------------------------------------------
A  --------------------------------------------------------6-------------------4----------------------------------------
E  -----------------------------------------------------------------------------------------------------------------------

E  5-------------------7------------------------------------------------------------------------------------------------
B  -------5-------------------7-----------------------------------------------------------------------------------------
G  --------------6-------------------8----------------------------------------------------------------------------------
D  -----------------------------------------------------------------------------------------------------------------------
A  -----------------------------------------------------------------------------------------------------------------------
E  -----------------------------------------------------------------------------------------------------------------------


E  7-----7-----7-----7-----4-----4-----4-----4-----4-----4-----4-----4-----7-----7-----7-----7------------
B  9-----9-----9-----9-----4-----4-----4-----4-----5-----5-----5-----5-----7-----7-----7-----7------------
G  9-----9-----9-----9-----5-----5-----5-----5-----6-----6-----6-----6-----8-----8-----8-----8------------
D  -----------------------------------------------------------------------------------------------------------------------
A  -----------------------------------------------------------------------------------------------------------------------
E  -----------------------------------------------------------------------------------------------------------------------

E  7-----7-----7-----7-----4-----4-----4-----4-----4-----4-----4-----4-----7-----7-----7-----7------------
B  9-----9-----9-----9-----4-----4-----4-----4-----5-----5-----5-----5-----7-----7-----7-----7------------
G  9-----9-----9-----9-----5-----5-----5-----5-----6-----6-----6-----6-----8-----8-----8-----8------------
D  -----------------------------------------------------------------------------------------------------------------------
A  -----------------------------------------------------------------------------------------------------------------------
E  -----------------------------------------------------------------------------------------------------------------------

E  5-------------------7------------------------------------------------------------------------------------------------
B  -------5-------------------7------------9-------------------7------------5----------------------------------------
G  --------------6-------------------8------------9------------8-------------------6---------------------------------
D  -----------------------------------------------------------------------------------------------------------------------
A  --------------------------------------------------------6------------4-----------------------------------------------
E  -----------------------------------------------------------------------------------------------------------------------

E  5-------------------7------------------------------------------------------------------------------------------------
B  -------5-------------------7------------9-------------------7-----5------------5---------------------------------
G  --------------6-------------------8------------9--------------------------6----------------------------------------
D  -----------------------------------------------------------------------------------------------------------------------
A  --------------------------------------------------------6-------------------------------------------------------------
E  -----------------------------------------------------------------------------------------------------------------------

E  5-------------------7------------------------------------------------------------------------------------------------
B  -------5-------------------7------------9-------------------7-------------------5---------------------------------
G  --------------6-------------------8------------9-------------------8-------------------6--------------------------
D  -----------------------------------------------------------------------------------------------------------------------
A  --------------------------------------------------------6-------------------4----------------------------------------
E  -----------------------------------------------------------------------------------------------------------------------

E  5-------------------7------------------------------------------------------------------------------------------------
B  -------5-------------------7-----------------------------------------------------------------------------------------
G  --------------6-------------------8----------------------------------------------------------------------------------
D  -----------------------------------------------------------------------------------------------------------------------
A  -----------------------------------------------------------------------------------------------------------------------
E  -----------------------------------------------------------------------------------------------------------------------

E  ------------------------------------------------------------------------------------0---------------------------------
B  ------------------------------------------------------------------------------------0---------------------------------
G  9------------8------------6------------4------------2------------4------------1---------------------------------
D  9------------8------------6------------4------------2------------4------------2---------------------------------
A  7------------6------------4------------2------------0------------2------------2---------------------------------
E  ------------------------------------------------------------------------------------0---------------------------------
Comments