Sublime - Santeria Chords & Tabs

 

Santeria Chords & Tabs

Sublime Chords & Tabs

Version: 2 Type: Tab 0 ratings
1 star 2 stars 3 stars 4 stars 5 stars
comments

Santeria Tab

Key- B- Bend
     BU-Bend up
     BD-Bend down 
     H- Hammer on
     P- Pull off
     /- slide up


This is the intro

e|------------------------------------------------------|
B|--------------------------4-----4---------------5-----|
G|------9-------9-------------5-----5--------4-h6---6---|
D|----9---9-------9-9-----------6--------6--------------|
A|--7-------7-7-------7----------------4----------------|
E|------------------------4-----------------------------|

e|-------2---2-----|
B|---------2-------|
G|-----------------|
D|----4------------|
A|--2--------------|
E|-----------------|
This is the Rythm
e|--4--4--4--4---4--4--4--4---4--4--4--4---7--7--7--7|
B|--5--5--5--5---4--4--4--4---5--5--5--5---7--7--7--7|
G|--4--4--4--4---5--5--5--4---6--6--6--5---8--8--8--8|
D|---------------------------------------------------|Repeat a
A|---------------------------------------------------|few times
E|---------------------------------------------------|than do this
[ Tab from: http://www.guitartabs.cc/tabs/s/sublime/santeria_tab_ver_2.html ]
e|-5------7--------4---------------------------|
B|---5------7---------5--4--4-h7-4--5----------|
G|-----6------8-----------------------6--------|
D|--------------------------------------6------|
A|---------------------------------------------|
E|---------------------------------------------|
And now The solo
e|------------------------------------------------------|
B|------------------------------------------------------|
G|------------------9---bu11--11-9-8---8------8-h9-p8---|
D|------------9-11------------------------11------------|
A|--7--9-/11--------------------------------------------|
E|------------------------------------------------------|

e|-----------------------------------------------------|
B|-2--2-p0---1-----------------------------------------|
G|---------1-------------------------------------------|
D|-------------bu4-4-2-p4-2---2--------------4-h6-h7---|
A|--------------------------4---4---4-h5-h7------------|
E|-----------------------------------------------------|

e|---------------------------9--------------------------|
B|-------------5--bu&hold12----bd12-9-------------------|
G|-----------6-------------------------b11-9----7-------|
D|-4-h6-h7-----------------------------------11---11----|
A|------------------------------------------------------|
E|------------------------------------------------------|

e|------------------------------------------------9------|
B|-----------------------------------------9--b11---9----|
G|-----------------------------------------9--b11-----9--|
D|---p11-9----------------------10----10-----------------|
A|---------11--9-h11-9------/11----11--------------------|
E|---------------------12--------------------------------|

e|------9--------------|
B|-b11----9----b12-----|that's the solo. than you go back to the rythm
G|-b11------9--b11-----|
D|---------------------|
A|---------------------|
E|---------------------|
Comments