Sublime - Santeria Chords & Tabs

 

Santeria Chords & Tabs

Sublime Chords & Tabs

Version: 14 Type: Tab 0 ratings
1 star 2 stars 3 stars 4 stars 5 stars
comments

Santeria Tab

                             Sublime
                          Santeria Solo              
                    Tabbed by KRISTIAN PIRAINO
 There are many versions of this solo but this is 100% correct! This is the best
version on the internet. This is one of my favoriote solos very fun! have fun and enjoy.

*=vibrato
/=slide
p=pulloff
---------------------------------------------------------
---------------------------------------------------------
------------------9--11^--9--8*--8--6--8^-6-6p4----4-----
----------9--11---------------------------------6-----6--
-7--9/11-------------------------------------------------
---------------------------------------------------------
[ Tab from: http://www.guitartabs.cc/tabs/s/sublime/santeria_tab_ver_14.html ]
---------------------------------------------------------
----------------------------------------5--12^--14--12--9-
-----------------------------------4h5-------------------
-4--4/2---2-----------------4h5h6------------------------
--------4---4--------2h3h4-------------------------------
---------------2h3h4-------------------------------------

----------------------------------------------------11^--
----------------------------------------------------11^--
--11^--9-------9------------------------------------11^--
----------11^-----11p9-------------------10----10*-------
------------------------11p9h11--7--9/11----11-----------
---------------------------------------------------------

-9-----11^--9-----11^------------------------------------
---9---11^----9---11^------------------------------------
-----9-11^------9-11^------------------------------------
---------------------------------------------------------
---------------------------------------------------------
---------------------------------------------------------
Comments