Sublime - Santeria Chords & Tabs

 

Santeria Chords & Tabs

Sublime Chords & Tabs

Version: 13 Type: Tab 0 ratings
1 star 2 stars 3 stars 4 stars 5 stars
comments

Santeria Tab

this is a modification of a solo done by chris adkins (verge17@hotmail.com)

|--------------------------------------------------------------|
|--------------------------------------------------------------|
|-----------9-/13-11-9-8--8p6-8-8b9r8--6-6p4---4---------------|
|------9-11----------------------------------6---4b6r4-2-4p2---|
|7-/11-------------------------------------------------------4-|
|--------------------------------------------------------------|

   
|-------------------0-----------------------------------------|
|----------------0h2----12b13-14-12---------------------------|
|-----------------------------------13-11h13p11-9----9--------|
|2-----------246----------------------------------11---11p9---|
|--4-----234--------------------------------------------------|
|----234------------------------------------------------------|

[ Tab from: http://www.guitartabs.cc/tabs/s/sublime/santeria_tab_ver_13.html ]
|-----------------------------------9------------9-------------|
|-----------------------------9------9------------9------------|
|-----------------------------11b13---9-11b13------9-11b13r11--|
|--------9-------10-----10-------------------------------------|
|11-9h11----h6-7--/11----/11-----------------------------------|
|--------------------------------------------------------------|

|--------------------------------------------------------------|
|--------------------------------------------------------------|
|-11b13r11-9-11-9~---------------------------------------------|
|--------------------------------------------------------------|
|--------------------------------------------------------------|
|--------------------------------------------------------------|
            ...ooooohhhh and i really wanna know........(chorus)

this is pretty close.

questions? comments? ataririot2004@hotmail.com  :)
Comments