Sublime - Santeria Chords & Tabs

 

Santeria Chords & Tabs

Sublime Chords & Tabs

Version: 1 Type: Bass Tab 0 ratings
1 star 2 stars 3 stars 4 stars 5 stars
comments

Santeria Bass Tab

Bass tab.  “Santeria” from Sublime’s Self-titled Album.

Intro.
g------16---------20-----------------4----------------------------
d--14--14-----------------------------------------------------------
a--------------------------4-------------------------------------------
e--------------16-------------------------------------------------

First Verse “I don’t practice Santeria . . . .”etc.
g-----------------------------------------------------------------
d-----------7h9-7h9-6-6---6-6-6-6-6-------------------------------
a-7-7---7-7------------6h8----------4--4-4-4--4--------------7h9---
e----7h9----------------------------------------7-7--7-7--9-7---------

g-----------------------------------------------------------------
d-----------7h9-7h9-6-6------------------------------------------
a-7-7---7-7------------6-6-6------4h6p4-4---4-4-4-2--2-2-2-2--2-2-2--
e----7h9--------------------4--4-4-------4h6------------------------

Chorus (Repeat 3 times) “What I really wanna say . . . .” etc.
g-----------------------------------------------------------------
d-----------------------------------------------------------------
a----7-7---7-7----9-9--9-9-7--7-6--6-4-4-------------------------
e-5-5----------7-7-------------------4-4--4-4--------------------

g-----------------------------------------------------------------
d-----------------------------------------------------------------
a----7-7---7-7---9-9---9-9-----------------------------------------------
e-5-5---------7-7--------------------------------------------------------

Second Verse “ . . . wait till I get back . . . .” etc.
g---------------------------------------------------------------------
d-----------7h9-7h9-6-6---6-6-6---6----6-6-----6-6-------------------
a-7-7---7-7------------6h8-----6h8--4-4---4-4-4---4----9-9---------7h9
e----7h9--------------------------------------------7-7---7-7-7-9p7---
[ Tab from: http://www.guitartabs.cc/tabs/s/sublime/santeria_btab.html ]
g-----------------------------------------------------------------------
d-----------7h9-7h9-6-6---6-6-6---6----6-6-----6-6--9--9--9--9--9--9-9-9
a-7-7---7-7------------6h8-----6h8--4-4---4-4-4---4------9-----9--------
e----7h9----------------------------------------------------------------

Second chorus (same as the first)
Guitar Solo (same as second verse)
Third Chorus

Third Verse “ . . . if he knows what is good for him . . . .” etc.
g--------------------------------------------------------------------
d-----------7h9-7h9----6------6------6-6------6-6--------------------
a-7-7---7-7----------------------4-4----4-4--4---4----9-9---------7h9
e----7h9------------4-4-4-4--4-4-------------------7-7---7-7-7-9p7---

g-----------------------------------------------------------------
d-----------7h9-7h9-6--6---6-6--6--6----6-6------6-6--9-9-9--9-9-9-9
a-7-7---7-7-------------6h8------6---4-4---4-4--4---4----9----9----
e----7h9-------------------------------------------------------------

Last Chorus
g-----------------------------------------------------------------
d-----------------------------------------------------------------
a----7-7--7-7---9-9--9-9-7--7-6--6-4-4------------7-7--7-7----9-9-9-9
e-5-5--------7-7----------------------4-4--4-4-5-5--------7-7------

g-----------------------------------------------------------------
d--9--------------------------------------------------------------
a-7-7-6--6-6-4-4-------------7-7-7-7---9-9--9-9-7--7-6--6-4-4------
e---------------4-4--4-4-5-5--------7-7----------------------4--4-

g-----------------------------------------------------------------
d-----------------------------------------------------------------
a----7-7--7-7---9-9--9-9------------------------------------------
e-5-5--------7-7-----------------------------------------------------

Outro
g-----------------------------------------------------------------
d-----------------------------------------------------------------
a-7--6--4--2--0--2--7---------------------------------------------
e-------------------0------------------------------------------------

I’m sure that this is right but you probably want to listen to the song
to figure out the timing. Questions or Comments-email me                
john.watkins@mci2000.com


Comments