Sublime - Same In The End Chords & Tabs

 

Same In The End Chords & Tabs

Sublime Chords & Tabs

Version: 2 Type: Tab 0 ratings
1 star 2 stars 3 stars 4 stars 5 stars
comments

Same In The End Tab

Title: Same In The End
Artist: Sublime
Album: Sublime
Transcribed by: Jack Obery

This is in my opinion one of the best tracks off the cd. I mean, who 
wants to hear a 7 minute song about shopping at a pawn shop? 
Anyway, its all here. Enjoi.

The first part is just one simple triad. Just over and over.

E--5--5--5--5--------
B--6--6--6--6--------
G--7--7--7--7--------
D--------------------
A--------------------
E--------------------

Chorus: simple power chords.
[ Tab from: http://www.guitartabs.cc/tabs/s/sublime/same_in_the_end_tab_ver_2.html ]
e-------------------------------------
B-------------------------------------
G----5-------7---5---3----------------
D-3---5---7---7---5---3---3---7-------
A-3---3---7---5---3---1---3---7-------
E-1-------5---------------1---5-------


Part after the chorus

e---10-----8-----5-----10------------
B---10-----8-----6-----10------------
G---10-----9-----5-----10------------
D------------------------------------
A------------------------------------
E------------------------------------


Solo, its easy enough to figure it out.



Thats about it. Dont email me.

-The day that I die will be the day that I shut my mouth and put 
down my guitar.
                        -Brad Nowell, Same In the End

Comments