Sublime - Same In The End Chords & Tabs

 

Same In The End Chords & Tabs

Sublime Chords & Tabs

Version: 2 Type: Bass Tab 0 ratings
1 star 2 stars 3 stars 4 stars 5 stars
comments

Same In The End Bass Tab

Song: Same in the End
Band: Sublime
Album: Sublime
Tabbed by: Nick Wayser (sublimebpp@hotmail.com)
 
[ Tab from: http://www.guitartabs.cc/tabs/s/sublime/same_in_the_end_btab_ver_2.html ]
Verse
Theres a million variations, pretty simple to figure out, try 'em
 |---------------------------------------------------------------|
 |--------------------7------------------------------------------|
 |-5-0h5-5-0h55-5-0h5--------------------------------------------|
 |---------------------------------------------------------------|
 
Chorus
 |---------------------------------------------------------------|
 |---------------------------------------------------------------|
 |-------33333-------555-333-------88888-------------------------|
 |-11111-------55555---------66666-------55555-55555-------------|
 
Pre-Verse
 |---------------------------------------------------------------|
 |---------------------------------------------------------------|
 |-5-5-5-x-3-3-3-x-8-8-8-x-5-5-5---------------------------------|
 |---------------------------------------------------------------|
 
Verse
 |---------------------------------------------------------------|
 |--------------------7------------------------------------------|
 |-5-0h5-5-0h55-5-0h5--------------------------------------------|
 |---------------------------------------------------------------|
 
Chorus
 |---------------------------------------------------------------|
 |---------------------------------------------------------------|
 |-------33333-------555-333-------88888-------------------------|
 |-11111-------55555---------66666-------55555-55555-------------|
 
Pre-Verse
 |---------------------------------------------------------------|
 |---------------------------------------------------------------|
 |-5-5-5-x-3-3-3-x-8-8-8-x-5-5-5---------------------------------|
 |---------------------------------------------------------------|
 
Verse
 |---------------------------------------------------------------|
 |--------------------7------------------------------------------|
 |-5-0h5-5-0h55-5-0h5--------------------------------------------|
 |---------------------------------------------------------------|
 
Chorus
 |---------------------------------------------------------------|
 |---------------------------------------------------------------|
 |-------33333-------555-333-------88888-------------------------|
 |-11111-------55555---------66666-------55555-55555-------------|
 
Pre-verse
 |---------------------------------------------------------------|
 |---------------------------------------------------------------|
 |-5-5-5-x-3-3-3-x-8-8-8-x-5-5-5---------------------------------|
 |---------------------------------------------------------------|
 
 Outro
 |---------------------------------------------------------------|
 |----------------3333333333333333-5555555555555555-7-7-5--------|
 |5555555555555555----------------------------------------8-8-7-5|
 |---------------------------------------------------------------|
Comments