Sublime - Rivers Of Babylon Chords & Tabs

 

Rivers Of Babylon Chords & Tabs

Sublime Chords & Tabs

Version: 6 Type: Tab 0 ratings
1 star 2 stars 3 stars 4 stars 5 stars
comments

Rivers Of Babylon Tab

   
Tabbed as on Sublime Acoustic: Bradley Nowell & Friends album


G   D   C

3   2   0
3   3   1
0   2   0
0   0   2
2       3
3

Riff

---------------3--3-3--3-3-3--|   Repeat
---------------3--3-3--3-3-3--|
---------------0--0-0--0-0-0--|
---------------0--0-0--0-0-0--|
-----2-2--3p0--2--2-2--2-2-2--|
-3-3-----------3--3-3--3-3-3--|

---------------2--2-2--3-2-2--|
---------------3--3-3--3-3-3--|
---------------2--2-2--2-2-2--|
---------------0--0-0--0-0-0--|
-2-2-3-3--2p0-----------------|
------------------------------|

-----------------3--3-3--3-3-3-|
-----------------3--3-3--3-3-3-|
-----------------0--0-0--0-0-0-|
--0-0-0h2--------0--0-0--0-0-0-|
----------0h2----2--2-2--2-2-2-|
--------------3--3--3-3--3-3-3-|

[ Tab from: http://www.guitartabs.cc/tabs/s/sublime/rivers_of_babylon_tab_ver_6.html ]
Verse
-----
                 G
By the rivers of babylon
             G
Where he sat down
             D
And there he wept
                   G
When he remembered Zion


Chorus
------

Oh from the wicked
G
Carry us away captivity
  C
Required from us a song
G
How can we sing King Alfa's song
      D        G
In a strange land

           G            D
So let the words of our mouth
              G           D
And the meditation of our heart
      G              D       (Mute)
Be acceptable in thy sight
       G
Override

Riff
----
Verse
-----
Chorus
------

G(Mute)
How can we sing King Alfa's song
     D       G
In a strange land

email if any questions popinachubby10@yahoo.com or IM me on popinachubby on AOL Instant Messenger
Comments