Sublime - Rivers Of Babylon Chords & Tabs

 

Rivers Of Babylon Chords & Tabs

Sublime Chords & Tabs

Version: 1 Type: Tab 1 rating
1 star 2 stars 3 stars 4 stars 5 stars
comments

Rivers Of Babylon Tab

   
#----------------------------------PLEASE NOTE---------------------------------#
#This file is the author's own work and represents their interpretation of the #
#song. You may only use this file for private study, scholarship, or research. #
#------------------------------------------------------------------------------#

Band:Sublime
Song:Rivers of Babylon
Album:40 Oz. to Freedom
Tabbed By:Michael Choy
sixdegrees.50megs.com

This is a great acoustic tune off the 40 oz album.  Originally recorded with
two guitars, it sounds awesome with a solo acoustic.  

Note:For verse use these chord voicings
Guitar 1          Guitar 2
 G   D   C         G   D   C
-3--(7)--3-----   -3---2---0-----
-3---7---5-----   -0---3---1-----
-4---7---5-----   -0---2---0-----
-5---7---5-----   -0---0---2-----
-5---5---3-----   -2---0---3-----
-3-------------   -3-------------
[ Tab from: http://www.guitartabs.cc/tabs/s/sublime/rivers_of_babylon_tab.html ]
Capo 1st fret
 Intro
 Guitar 1.    G                                D
|-------------3---3-3---3-3-3-3----------------2-----2-3-2-2(0)--------------|
|-------------0---0-0---0-0-0-0----------------3-----3-3-3-3(0)--------------|
|-------------0---0-0---0-0-0-0(2x)------------2-----2-2-2-2(0)--0---0-------|
|-------------0---0-0---0-0-0-0---0---0/2-0----0-----0---------2--0h2----0---|
|-----2-2-3-0-2---2-2---2-2-2-2---2---2/3-2-(0)0-----0----------------0h2----|
|-3-3---------3---3-3---3-3-3-3----------------------------------------------|
|                                                                           
|Guitar 2. 12 string                                                        
|-------------3---3-3---3-3-3-3----------------2-----2-3-2-2-----3---3-------|
|-----0-0-1---3---3-3---3-3-3-3---0-0-1-1-0----3-----3-3-3-3---5--3h5----3---|
|-0-0-------2-0---0-0---0-0-0-0----------------2---2-2-2-2-2----------2h4----|
|-------------0---0-0---0-0-0-0(2x)------------0---0-----0-0-----------------|
|-----------------2-2---2-2-2-2----------------0---0-----0-0-----------------|
|-----------------3-3---3-3-3-3----------------------------------------------| 
                           
 
 Guitar 1 (con)
|-----3-3---3-3-3-3----------------------------------------------------------|
|-----0-0---0-0-0-0----------------------------------------------------------|
|-----0-0---0-0-0-0----------------------------------------------------------|
|-----0-0---0-0-0-0----------------------------------------------------------|
|-----2-2---2-2-2-2----------------------------------------------------------|
|-3---3-3---3-3-3-3----------------------------------------------------------|
|                                                                            |
|Guitar 2 (con)                                                              |
|-----3-3---3-3-3-3----------------------------------------------------------|
|(3)--3-3---3-3-3-3----------------------------------------------------------|
|-0---0-0---0-0-0-0----------------------------------------------------------|
|-----0-0---0-0-0-0----------------------------------------------------------|
|-----2-2---2-2-2-2----------------------------------------------------------|
|-----3-3---3-3-3-3----------------------------------------------------------| 

Verse:
(By the rivers ofBabylon)

Instrumental Break
 Guitar 1.    G                                D
|-------------3---3-3---3-3-3-3----------------2-----3p2-2-2---2-------------|
|-------------0---0-0---0-0-0-0----------------3-----3-3-3-3---3-------------|
|-------------0---0-0---0-0-0-0(2x)------------2---2-2-2-2-2---2----0--------|
|-------------0---0-0---0-0-0-0----0---0/2-0---0---0-----0-0---0-0h2----0----|
|-----2-2-3-0-2---2-2---2-2-2-2----2---2/3-2(0)0---0-----0-0---0-----0h2--0-2|
|-3-3---------3---3-3---3-3-3-3----------------------------------------------|
|                                                                            |
|Guitar 2.                                                                   |
|-------------3---3-3---3-3-3-3---------------(3)----3p2-2-2---2----3--------|
|-----0-0-1---3---0-0---0-0-0-0----0-0-1-1-0---3-----3-3-3-3---3-3h5----3----|
|-0-0---------0---0-0---0-0-0-0----------------2-----2-2-2-2---2-----2h4--2-4|
|-------------0---0-0---0-0-0-0(2x)------------0-----0-0-0-0---0-------------|
|-------------2---2-2---2-2-2-2----------------0-----0-0-0-0---0-------------|
|-------------3---3-3---3-3-3-3----------------------------------------------| 



 Guitar 1 (con)
|-3-----3---3---3-3----------------------------------------------------------|
|-0-----0---0---0-0----------------------------------------------------------|
|-0-----0---0---0-0----------------------------------------------------------|
|-0-----0---0---0-0----------------------------------------------------------|
|-2-----2---2---2-2----------------------------------------------------------|
|-3-----3---3---3-3----------------------------------------------------------|
|                                                                            |
|Guitar 2 (con)                                                              |
|-3-----3---3---3-3----------------------------------------------------------|
|-0-----0---0---0-0----------------------------------------------------------|
|-0-----0---0---0-0----------------------------------------------------------|
|-0-----0---0---0-0----------------------------------------------------------|
|-2-----2---2---2-2----------------------------------------------------------|
|-3-----3---3---3-3----------------------------------------------------------| 
Comments