Sublime - Rivers Of Babylon (riff) Chords & Tabs

 

Rivers Of Babylon (riff) Chords & Tabs

Sublime Chords & Tabs

Version: 1 Type: Tab 1 rating
1 star 2 stars 3 stars 4 stars 5 stars
comments

Rivers Of Babylon (riff) Tab

   
#----------------------------------PLEASE NOTE---------------------------------#
#This file is the author's own work and represents their interpretation of the #
#song. You may only use this file for private study, scholarship, or research. #
#------------------------------------------------------------------------------#

Date: Tue, 30 Dec 1997 22:51:39 PST
From: Colin Alexander 
Subject: TAB: Rivers of Babylon by Sublime


Rivers of Babylon by Train and also appears on the album
40 oz. to Freedom by Sublime
tabbed by Colin Alexander

here are the chords used
[ Tab from: http://www.guitartabs.cc/tabs/s/sublime/rivers_of_babylon_riff_tab.html ]
    G           D           C
|---3---|   |---2---|   |---0---|
|---3---|   |---3---|   |---1---|
|---0---|   |---2---|   |---0---|
|---0---|   |---0---|   |---2---|
|---2---|   |-------|   |---3---|
|---3---|   |-------|   |-------|

opening riff
2x
|-------------3--3-3--3-3-3-----|
|-------------3--3-3--3-3-3-----|
|-------------0--0-0--0-0-0-----|
|-------------0--0-0--0-0-0-----|
|------2-2-3--2--2-2--2-2-2-----|
|--3-3--------3--3-3--3-3-3-----|

|-------------2--2-2--3-2-2-----|
|-------------3--3-3--3-3-3-----|
|-------------2--2-2--2-2-2-----|
|-------------0--0-0--0-0-0-----|
|--2-2-3-3-2--------------------|
|-------------------------------|

|----------------3--3-3--3-3-3--|
|----------------3--3-3--3-3-3--|
|----------------0--0-0--0-0-0--|
|--0-0-02--------0--0-0--0-0-0--|
|----------02----2--2-2--2-2-2--|
|--------------3-3--3-3--3-3-3--|


well that's about it, thanks
Colin Alexander   ca_zero@hotmail.com
Comments