Sublime - Pool Shark Chords & Tabs

 

Pool Shark Chords & Tabs

Sublime Chords & Tabs

Version: 1 Type: Tab 0 ratings
1 star 2 stars 3 stars 4 stars 5 stars
comments

Pool Shark Tab

   
#-----------------------------PLEASE NOTE-------------------------------------#
#This OLGA file is the author's own work and represents their interpretation  #
#of the song. You may only use this file for private study, scholarship, or   #
#research. Remember to view this file in Courier, or other monospaced font.   #
#See http://www.olga.net/faq/ for more information.                           #
#-----------------------------------------------------------------------------#

Subject: Sublime/ Pool shark (Fast version)
Date: Sun, 29 OCT 2000 12:45:14 AM  MT
From: TY GADY 

This song is a short and fast punk song which is  
really fun to play.  It is a bunch of power chords all
over the neck of the guitar.  Have Fun!


-----------------------------------------------------------------------  
-----------------------------------------------------------------------  
-----------------------------------------------------------------------  
-------7------7-------------7----7------7------------7-----------------  
----5------5-------5----5------------5------5---5--------5----5--------  
-------------------5-----------------5------5-----------------5--------  
 D5

-----------------------------------------------------------------------  
-----------------------------------------------------------------------  
---7-------------------------------------------------------------------  
---7------ABOUT 15--TIMES-----REALLY FAST------------------------------ 
---5-------------------------------------------------------------------  
---5-------------------------------------------------------------------
       

   Lying in my.....       how things were....     my baby likes....
-----------------------------------------------------------------------  
---7----------------------5-----------------------6--------------------  
---7----------------------6-----------------------7--------------------  
---7----------------------7-----------------------8--------------------  
---5----------------------7-----------------------8--------------------  
--------------------------5-----------------------6--------------------  
   D                    A                      Bb


   I like lying...    Tying off the....   tonight it used...
-----------------------------------------------------------------------  
---10------------------2-----------------9-----------------------------  
---10------------------3-----------------10----------------------------  
---10------------------4-----------------11----------------------------  
---8-------------------4-----------------11----------------------------  
-----------------------2-----------------9-----------------------------  
   F                F#                 C#5
   
[ Tab from: http://www.guitartabs.cc/tabs/s/sublime/pool_shark_tab.html ]
   Now i got the  needle    i can ...    breathe...
-----------------------------------------------------------------------
----9-------------7-----------9-----------7----------------------------
----9-------------8-----------9-----------8----------------------------
----9-------------9-----------9-----------9----------------------------
----7-------------9-----------7-----------9----------------------------
------------------7-----------------------7----------------------------
   E             B           E             B


   Take it away..     more and more       one day i'm....
-----------------------------------------------------------------------
----9-----------------7-----------------11-----------------------------
----9-----------------8-----------------11--(just once, let ring)------
----9-----------------9-----------------11-----------------------------
----7-----------------9-----------------9------------------------------
----------------------7------------------------------------------------
   E                 B                  F#


    Lying in my....  how things....    my baby likes....
-----------------------------------------------------------------------
-----------------------------------------------------------------------
---------------------6-------------------7-----------------------------
----4----------------6-------------------7-----------------------------
----4----------------4-------------------5-----------------------------
----2------------------------------------------------------------------
   F#5               C#                 D

    I like lying....  Tying off the...    tonight is used to....
-----------------------------------------------------------------------
-----5-------------------6------------------10-------------------------
-----6-------------------7------------------10-------------------------
-----7-------------------8------------------10-------------------------
-----7-------------------8------------------8--------------------------
-----5-------------------6---------------------------------------------
   A                   Bb                   F


     Now i got the needle ...
-----------------------------------------------------------------------
----11--------------9--------11--------------------9-------------------
----11--------------10-------11--------------------10------------------
----11--------------11-------11--------------------11------------------
----9---------------11-------9---------------------11------------------
--------------------9------------------------------9-------------------
   F#               C#         F#                  C#


    Take it away...
-----------------------------------------------------------------0-----
------11---------------9-----------------13----------------------0-----
------11---------------10----------------13---(let ring)---------0-----    
------11---------------11----------------13----------------------------
------9----------------11----------------11---------------------------0
-----------------------9----------------------------------------------0
     F               C#                  G3
Comments