Sublime - Pawn Shop (intro) Chords & Tabs

 

Pawn Shop (intro) Chords & Tabs

Sublime Chords & Tabs

Version: 1 Type: Tab 1 rating
1 star 2 stars 3 stars 4 stars 5 stars
comments

Pawn Shop (intro) Tab

#----------------------------------PLEASE NOTE---------------------------------#
#This file is the author's own work and represents their interpretation of the #
#song. You may only use this file for private study, scholarship, or research. #
#------------------------------------------------------------------------------#
Sublime - Pawn shop (intro)
Tabbed By: J.Gonzalez 

INTRO

e-----------|
b-----------|                    
g-----0-----|              
d-0-2---2---|
a-----------|
e-----------| x 4


e-------------|
b-----------3-|
g-4-2-0-2-4---|
d-------------|
a-------------|
e-------------|


e--------------------------|
b------------------3-------|
g-4-2-0------0-2-4---4-2h4-|    
d-------2------------------|          
a--------------------------|
e--------------------------|  X 3


e----------------------------0-3-0--|        
b------------------3-------3--------|   
g-4-2-0------0-2-4---4-2-4----------|                   
d-------2---------------------------|         
a-----------------------------------|
e-----------------------------------|

[ Tab from: http://www.guitartabs.cc/tabs/s/sublime/pawn_shop_intro_tab.html ]
e-----0-3-0-0--------------------0-3-0--|
b--3-3---------3-0---0---3-----3--------|
g------------------2--------------------|
d---------------------------------------|
a---------------------------------------|
e---------------------------------------|


e--7---------7-10---7----------------7-10-7---7-10-12-15-12--|
b----10-8-10-----------10-8-----8-10--------10---------------|
g---------------------------9--------------------------------|
d------------------------------------------------------------|
a------------------------------------------------------------|
e------------------------------------------------------------|


e-10-10-12-15-12-12----10-7-5-7-3-5-3-0-2--|
b------------------------------------------|
g------------------------------------------|
d------------------------------------------|
a------------------------------------------|
e------------------------------------------|



e---------------------------|
b---------------------------|
g---------------------------|
d-0-2-5-5-0-2-5-5-2-0---0---|
a---------------------2-----|
e---------------------------| X 4


e-----------|
b-----------|                    
g-----0-----|              
d-0-2---2---|
a-----------|
e-----------|




Comments