Sublime - New Realization Chords & Tabs

 

New Realization Chords & Tabs

Sublime Chords & Tabs

Version: 1 Type: Chords 0 ratings
1 star 2 stars 3 stars 4 stars 5 stars
comments

New Realization Chords

   
#----------------------------------PLEASE NOTE---------------------------------#
#This file is the author's own work and represents their interpretation of the #
#song. You may only use this file for private study, scholarship, or research. #
#------------------------------------------------------------------------------#

Sublime - New Realization
Album - Second hand smoke
tabbed by ty gady

OK, i'm not sure i'm right about this cause i suck at hearing chords
in songs but maybe someone can correct me if i'm wrong. Brad uses
some kind of effects for the guitar that makes it sound pretty cool.
This song is fucking awesome.
[ Tab from: http://www.guitartabs.cc/tabs/s/sublime/new_realization_crd.html ]
C
-----------0----0---------0----0----0------------------|
-----------1----1---------1----1----1------------------|
-----------0----0---------0----0----0------------------|
-----------2----2---------2----2----2------------------|
-----------3----3---------3----3----3------------------|
-----0-------------------------------------------------|
           d    u         u    d    u


G
-----------3----3---------3----3----3------------------|
-----------0----0---------0----0----0------------------|
-----------0----0---------0----0----0------------------|
-----------0----0---------0----0----0------------------|
-----------2----2---------2----2----2------------------|
-----3-----3----3---------3----3----3------------------|
           d    u         u    d    u


I think these are the only two chords used the whole song
but the strumming should be correct.



I'm not too sure about this bassline either but try it out.
I don't have a bass so i have to play it on guitar but it's 
basically C and G still.

------------------------------------------------------|
---------2--2-------------------0---0-----------------|
------3---------3-----------2-----------2-------------|
---0--------------------3-----------------------------|

   1, 2, 3,  &  4      1,  2,  3,  &  4 





Good luck, and enjoy.  email me for questions or comments at
Hobbes72599@aol.com
Comments