Sublime - Lincoln Highway Dub 2 Chords & Tabs

 

Lincoln Highway Dub 2 Chords & Tabs

Sublime Chords & Tabs

Version: 1 Type: Bass Tab 0 ratings
1 star 2 stars 3 stars 4 stars 5 stars
comments

Lincoln Highway Dub 2 Bass Tab

There were only a couple of corrections from the other file. Just in the intro and a few 
extra notes in the verses. This is a great instrumental version of Santeria played one 
half- step up.


 |------------------------------------------------|
 |--------------------------------------------10--|
 |-8-----8-8--8---8-8-8------------------5----10--|
 |---8-11-------8--------5-0-5-5-5--5-------------|

 |--------------------------------------------------------|
 |-------------------------10p8-10p8--7--7-------7--7-7-7-|
 |------8--8--8-8-10--8--8----------------7h9-7-----------|
 |-8h10---------------------------------------------------|

 |--------------------------------------------------|
 |----------------------------------------------3h5-|
 |-5-5---5-5---5-5-5-5-5--3-3---3-3---3-3---3h5-----|
 |-----5-----5----------------3-----3-----3---------|


 |------------------------------------------------------|
 |----------------8h10-8h10--7-7--7---------------------|
 |-8--8------8--8-------------------7-7--7----------5h7-|
 |------8h10-------------------------------5--5-5h7-----|


 |---------------------------------------------------|
 |---------------------------------------------------|
 |-5-5------5-5--5-5-5--5\---------------------------|
 |-----5h7------5-----------8-8--8-8-8-8--8-8-7------|

 |---------------------------------------------------------|
 |---------------------------------------------------------|
 |-------------------------------8--8-8--7--7-7--5---------|
 |-6--6-6-6--6-6--8--8-8-8--8-8--------------------5-5-5-5-|

 |---------------------------------------------------------|
 |--------------------------------10------9------7---------|
 |---8-------------10-----------8----8--7---7--5---5-------|
 |-6---6-6--6-6--8----8-8--8-8---------------------------5-|

 |---------------------------------------------------------|
 |---------------------------------------------------------|
 |------------------10-----------8--8-8--7--7-7--5---------|
 |-6--6-6-6--6-6--8----8-8--8-8--------------------5-5-5-5-|
 
 |----------------------------------|
 |----------------------------------|
 |----------------------------------|
 |-6-6--6-6-6--6-6--8-8--8-8-8--8-8-|


 |------------------------------------------------------|
 |----------------8h10-8h10--7-7--7---------------------|
 |-8--8------8--8-------------------7-7--7----------5h7-|
 |------8h10-------------------------------5--5-5h7-----|

[ Tab from: http://www.guitartabs.cc/tabs/s/sublime/lincoln_highway_dub_2_btab.html ]
 |---------------------------------------------------|
 |-----------------------------------------------3h5-|
 |-5-5------5-5--5-5-5--5--3-3---3-3---3-3---3h5-----|
 |-----5h7--------5------------3-----3-----3---------|

 |------------------------------------------------------|
 |----------------8h10-8h10--7-7--7---------------------|
 |-8--8------8--8-------------------7-7--7----------5h7-|
 |------8h10-------------------------------5--5-5h7-----|


 |-------------------------------------------------------------|
 |-------------------------------------------------------------|
 |-5-5------5-5---5-5--5/15--15-15----15-15----15-15--15-15-14-|
 |-----5h7------5------------------15-------15-----------------|
 
 
 |---------------------------------------------------------|
 |---------------------------------------------------------|
 |------------------10-----------8--8-8--7--7-7--5---------|
 |-6--6-6-6--6-6--8----8-8--8-8--------------------5-5-5-5-|
 


 |---------------------------------------------------------|
 |---------------------------------------------------------|
 |-------------------------------8--8-8--7--7-7--5---------|
 |-6--6-6-6--6-6--8--8-8-8--8-8--------------------5-5-5-5-|


 |---------------------------------------------------------|
 |---------------------------------------------------------|
 |-------------------------------8--8-8--7--7-7--5---------|
 |-6--6-6-6--6-6--8--8-8-8--8-8--------------------5-5-5-5-|

 |----------------------------------|
 |----------------------------------|
 |----------------------------------|
 |-6-6--6-6-6--6-6--8-8--8-8-8--8-8-|

 |------------------------------------------------------|
 |----------------8h10-8h10--7-7--7---------------------|
 |-8--8------8--8-------------------7-7--7----------5h7-|
 |------8h10-------------------------------5--5-5h7-----|


 |------------------------------------------------------|
 |--------------------------------------------------3h5-|
 |-5-5------5-5--5-5-5--5--3-3--3-3-3--3-3-3--3-3h5-----|
 |-----5h7----------------------------------------------|

  Rest 2 measures

 
 |---------------------------------------------------|
 |---------------------------------------------------|
 |-5-5------5-5--5-5-5--5----------------------------|
 |-----5h7-----------------8-8--8-8-8-8--8-8-7-------|

 

 |------------------------------------------------------------|
 |---------------------------------10------9------7-----------|
 |------------------10-----------8----8--7---7--5---5---------|
 |-6--6-6-6--6-6--8----8-8--8-8-----------------------5-5-5-5-|



 |------------------------------------------------------------|
 |---------------------------------10------9------7-----------|
 |-------------------------------8----8--7---7--5---5---------|
 |-6--6-6-6--6-6--8--8-8-8--8-8-----------------------5-5-5-5-|
Comments