Sublime - Lets Go Get Stoned Chords & Tabs

 

Lets Go Get Stoned Chords & Tabs

Sublime Chords & Tabs

Version: 2 Type: Bass Tab

Lets Go Get Stoned Bass Tab

I've been trying to figure out this song on my own since the only tab of this song there
is is just a main verse (which has an error in it)

G|----6-9-6\2---------------|
D|--------------------------|
A|------------0---------0---|
E|-0------------3-0-2-3---3-|

G|----6-9-6\2---------|
D|--------------------|
A|------------0-----0-|
E|-0------------3-4---|

G|----------------------------------|
D|---/4-444----/4--44-----/4-4444---|
A|-2--------2---------2-----------2-|
E|----------------------1-----------|

G|------------|
D|------------|
A|---55555----| X(13)
E|-3-------11-|

G|--------------|-----------|-----------|
D|--------------|-----------|-----------|
A|----------3---|-----33----|-------3---|
E|-3--33-55---3-|-3355--5-3-|-33-55---3-|

G|-----------|-----------|-----------|
D|-----------|-----------|-----------|
A|-----33----|-------3---|-----33----|
E|-3355--5-3-|-33-55---3-|-3355--5-3-|
[ Tab from: http://www.guitartabs.cc/tabs/s/sublime/lets_go_get_stoned_btab_ver_2.html ]
G|-----------|-----------|
D|-----------|-----------|
A|-------3---|-----33----|
E|-33-55---3-|-3355--5-3-|

G|------------|
D|------------|
A|---55555----| X(9)
E|-3-------11-|

G|------------|
D|---------33-|
A|---55555----| 
E|-3----------|

G|------------|
D|------------|
A|---55555----| X(10)
E|-3-------11-|

G|--------------|-----------|-----------|-----------|
D|--------------|-----------|-----------|-----------|
A|----------3---|-----33----|-------3---|-----33----|
E|-3--33-55---3-|-3355--5-3-|-33-55---3-|-3355--5-0-|

G|------6-9-6\2---------------|
D|----------------------------|
A|--------------00----0-------|
E|-0~~-------------33---------|

I'm not sure about the solo and outro but i think it goes something 
like this.  just improvise using the E major scale.

G|----6-9-6\2-----------|
D|----------------------|
A|------------0---------| X(4)
E|-0------------3-2-023-|

G|-----------------4-4-2-|
D|-------------0-4-------|
A|-------0-2-3-----------| X(4)
E|-0-2-3-----------------|


well thats the best I can do.

-Picks r4 Dicks-