Sublime - Legalize It Chords & Tabs

 

Legalize It Chords & Tabs

Sublime Chords & Tabs

Version: 1 Type: Tab 0 ratings
1 star 2 stars 3 stars 4 stars 5 stars
comments

Legalize It Tab

booerkashot.

of course, this one goin out to all the real heads.

legalize it (my mp3 says sublime and 311 but i think its just sublime)

intro riff (x4)
e-----------------------------------------------------------|
b-----------------------------------------------------------|
g------------------3----------------------------------------|
d------4--4--4------6--6--6--2--4--4--4------2--------------|
a------------------------------------------------4----------|
e-----------------------------------------------------------|

^^the above riff is continuously played throughout the song.
[ Tab from: http://www.guitartabs.cc/tabs/s/sublime/legalize_it_tab.html ]
rhythm part (after four bars of the intro riff, a second guitar comes in)
play upstrokes on two and four (reggae style)

e------2------2------0------0------|
b------2------2------0------0------|
g------3------3------1------1------|
d------4------4------2------2------|
a----------------------------------|
e----------------------------------|

thats all, and after every four bars, a funky drum fill.

lyrics (done by me, so whatever)
legalize it
don't criticize it
legalize it, yeah
and i will advertise it
some of them call it ganja
some of them call it buddha
some call it marijuana, yeah
i still call it (stoned mummbling)
people smoke it
and players of double bass too
doctors smoke it
my mom smokes it
my dog smokes it
i smoke it too

only cure for asthma
only cure for glaucoma
(thats where the song ends i think)
Comments