Sublime - Krs Chords & Tabs

 

Krs Chords & Tabs

Sublime Chords & Tabs

Version: 1 Type: Chords 0 ratings
1 star 2 stars 3 stars 4 stars 5 stars
comments

Krs Chords

   
#----------------------------------PLEASE NOTE---------------------------------#
#This file is the author's own work and represents their interpretation of the #
#song. You may only use this file for private study, scholarship, or research. #
#------------------------------------------------------------------------------#

KRS-1 By Sublime



This tune's pretty easy, there's a bridge that I didn't bother putting on, but it's only 
F and G bar chords...enjoy. Any questions, reach me at hussies@hotmail.com
[ Tab from: http://www.guitartabs.cc/tabs/s/sublime/krs_crd.html ]
 CAm        Repeat 4X    F     G    F    G    E7
----------------------/--------1-----3----1----3-----------------------------------------------|
-3-------0------------/--------1-----3----1----3-----------------------------------------------|
---2-------2----------/--------2-----4----2----4-----7-----------------------------------------|
-----0-------2--------/--------3-----5----3----5-----6-----------------------------------------|
-----1-------1--------/--------3-----5----3----5-----7-----------------------------------------|
-----0-------0--------/--------1-----3----1----3-----0-----------------------------------------|



 F   F
-1---------1--------------------------------------------------------------------------|
-1---------1--------------------------------------------------------------------------|
-2---------2--------------------------------------------------------------------------|
-3---------3--------------------------------------------------------------------------|
-3--0--3---3--0--3--------------------------------------------------------------------|
-1---------1--------------------------------------------------------------------------|


Ryan Bince
HBA1, Richard Ivey School of Business
University of Western Ontario
hussies@hotmail.co
Comments