Sublime - Jailhouse Chords & Tabs

 

Jailhouse Chords & Tabs

Sublime Chords & Tabs

Version: 2 Type: Bass Tab 0 ratings
1 star 2 stars 3 stars 4 stars 5 stars
comments

Jailhouse Bass Tab

Song: Jailhouse
Artist: Sublime
Album: Sublime
Tabbed by: Dave Miller (dave@basstabarchive.com)
http://www.basstabarchive.com/

Part I (Verse)

G|---------------------------------------------------|
D|*-----------------5h7------------------7h9-7h9-----|
A|*---5-5----5-5--5--------7-7----7-7--7-------------|
E|---------5------------5-------7--------------------|


Part II
    
G|-------------------------------------------------------------|
D|*------------------------------------------------------------|
A|*-------5-5-5-5-------5-5-5-5--------7-7-7-7-------7-7-7-7---|
E|--3h5-5---------3h5-5----------5h7-7---------5h7-7-----------|


Part III
[ Tab from: http://www.guitartabs.cc/tabs/s/sublime/jailhouse_btab_ver_2.html ]
G|--------------------------------------|
D|*--------------------------7h9-7h9----|
A|*---5-5------7-7----7-7--7------------|
E|------------------7-------------------|


Part IV

G|-------------------------------------------------------|
D|*------------------------------------------------------|
A|*--5--5-5--5--5-5--------------------------------------|
E|------------------7--5--4--0--0-0--0--0-0--2--4--7-----|


End

G|----------------|
D|*---------------|
A|*--5-5----------|
E|----------------|
    "can't fight against the youth"


Structure:

Part I x 10
Part II x 8
Part I x 4
Part III x 1
Part I x 3
Part III x 1
Part I x 5
Part II x 4
Part IV x 8
Part I x 2
End
Comments