Sublime - Hope Chords & Tabs

 

Hope Chords & Tabs

Sublime Chords & Tabs

Version: 2 Type: Bass Tab 0 ratings
1 star 2 stars 3 stars 4 stars 5 stars
comments

Hope Bass Tab

Song: Hope
Artist: Sublime
Album: 40 oz. To Freedom
Tabbed by: Dave Miller (dave@basstabarchive.com)
http://www.basstabarchive.com/

This tab represents the basic root of the song.  There's
a lot of fast picking going on in here, but you'll get
the idea.

This song is a cover of the Descendents' song of the
same name.

Intro

G|------------------------------|
D|*---5-------------5-----------|
A|*------5--6----------5--6-----|
E|-------------6-------------6--|

    
Verse

G|------------------------------|
D|*-----------------------------|
A|*--------6--------------6-----|
E|---8--6-----8--6--4--6--------|


Chorus
[ Tab from: http://www.guitartabs.cc/tabs/s/sublime/hope_btab_ver_2.html ]
G|-------------------------------|
D|*------------------------------|
A|*------5--6------------5--6----|
E|----3--------6------3--------6-|


Bridge

G|--------------------------------------------------|
D|*-------------------------------------------------|
A|*-------6----------------6------------------6-6---|
E|--4--6-----8--6----4--6--------4-4------4-4-----4-|
   "Call it selfish..."      "got you....you don't stand a chance"


Ending

G|----------------------------------------------|
D|*---------------------------------------------|
A|*---5-5------------6-----5-5------------6-----|
E|----------6-6---4--------------6-6---4--------|

G|-------------------------------|
D|*------------------------------|
A|*------5--6------------5--6----|
E|----3--------6------3--------6-|
    "I'm gonna be the only one..."
Comments