Sublime - Greatest Hits Chords & Tabs

 

Greatest Hits Chords & Tabs

Sublime Chords & Tabs

Version: 1 Type: Chords 0 ratings
1 star 2 stars 3 stars 4 stars 5 stars
comments

Greatest Hits Chords

   
#----------------------------------PLEASE NOTE---------------------------------#
#This file is the author's own work and represents their interpretation of the #
#song. You may only use this file for private study, scholarship, or research. #
#------------------------------------------------------------------------------#

Sublime: Greatest hits

A        C        D   C  A     C
e|--5--5--X--8--X--8--10--8--5--5--8--X--8---|
B|--5--5--X--8--X--8--10--8--5--5--8--X--8---|
G|--6--------9--X--9--11--9--6-----9--X--9---|
D|--7-------10----10--12-10--7----10---------|
A|-------------------------------------------|
E|-------------------------------------------|
[ Tab from: http://www.guitartabs.cc/tabs/s/sublime/greatest_hits_crd.html ]
    A        C        D 
e|--5--5--X--8--X--8--10--10--10--10---------|
B|--5--5--X--8--X--8--10--10--10--10---------|
G|--6--------9--X--9--11--11--11--11---------|
D|--7-------10----10-------------------------|  *repeat*
A|-------------------------------------------|
E|-------------------------------------------|


G          D          C       G
e|-------------10---------8------------------|
B|---------------10--------8-----------------|
G|--12--12-12------11--X----9--X--12---------|
D|--12--12-12----------X-------X-----12------|
A|--10--10-------------X-------X--------10---|
E|-------------------------------------------|

    

      G          D          C       

e|-------------10---------8------------------|
B|---------------10--------8-----------------|
G|--12--12-12------11--X----9---9--9--9--9---|
D|--12--12-12----------X-------10-10-10-10---|
A|--10--10-------------X-------10-10-10-10---|
E|------------------------------8--8--8--8---|

Got my greatest hits
Got my greatest hits




Chords Used
------------
    Gm  E  D  D   B  A  G
e|--10--7--5--10--7--5--10--|
B|--11--9--7--10--7--5--12--|
G|--12--9--7--11--8--6--12--|
D|--12--9--7--12--9--7--12--|
A|--10--7--5--12--9--7--10--|
E|------------10--7--5------|
Comments