Sublime - Get Ready Chords & Tabs

 

Get Ready Chords & Tabs

Sublime Chords & Tabs

Version: 1 Type: Bass Tab 0 ratings
1 star 2 stars 3 stars 4 stars 5 stars
comments

Get Ready Bass Tab

   
Song: Get Ready
Band: Sublime
Album: Self Titled
Tabbed by: Rob MacGuffie (SubDubLBC@aol.com)
Tuning: Standard
Visit My Sublime Bass Tab Site: http:\\subdublbc.tripod.com

 First Part
 |---------------------|
 |---------------------|
 |---------------------|
 |-5h7-5-5-5-5-5-x-5-5-|

 Then:
 |------------|
 |------------|
 |------2-2-0-|
 |-2--2-------|
[ Tab from: http://www.guitartabs.cc/tabs/s/sublime/get_ready_btab.html ]
 Next:
 |------------|
 |------------|
 |------2-2---|
 |-0--0-----2-|

 Then, near the end is this part:
 |--------------------------|
 |--------------------------|
 |--------------------------|
 |-5-5-5-5-5-5--5-5-5-5-7-5-|

 After that last Part just repaet the 
 other parts. Listen to the song to get exacts.


 |Key|

h = Hammer-on
x = Mute

Comments