Sublime - Garden Grove Chords & Tabs

 

Garden Grove Chords & Tabs

Sublime Chords & Tabs

Version: 1 Type: Tab 1 rating
1 star 2 stars 3 stars 4 stars 5 stars
comments

Garden Grove Tab

   
Sublime 
"Garden Grove"
from "Sublime"
Gasoline Alley Records
Music by Bradley Nowell

Standard Tuning


Intro                    *
---------------------------------------------3---------
---------------------------------------------0---------
-------------------------2----2--------------0---------
----2h5p4p2-------2------2----2--------------0---------
-------------3h4---------0----0---------2----2---------
-------------------------------------3-----------------
*let these chords ring and repeat this right up until "5 dollars at the door"

[ Tab from: http://www.guitartabs.cc/tabs/s/sublime/garden_grove_tab.html ]
Verse   "gets so real sometime"                       Interlude "If you only knew"
   A       G
---5-x-5-x-3-x-3-x--------------5-x-x-5-x-x-5-5-x-5-x-5
---5-x-5-x-3-x-3-x--------------5-x-x-5-x-x-5-5-x-5-x-5
---6-x-6-x-4-x-4-x-------------------------------------
---7-x-7-x-5-x-5-x-------------------------------------
-------------------------------------------------------
-------------------------------------------------------

That is pretty much the whole song with some variations

Outro organ thing

-------------------------------------------------------
-------------5-------5~~6-5h6-8/10---------------------
-------5-7p5---7-5h7-----------------------------------
--7~~~~------------------------------------------------
-------------------------------------------------------
-------------------------------------------------------

That's it, a chillin reggae song by a great band.  
The outro sounds great with some mad tremelo. 
 I have a floyd rose system so I just go nuts to 
try and make it sound like the organ on the album.   
Peace everyone
Comments