Sublime - Dont Push Chords & Tabs

 

Dont Push Chords & Tabs

Sublime Chords & Tabs

Version: 1 Type: Bass Tab 0 ratings
1 star 2 stars 3 stars 4 stars 5 stars
comments

Dont Push Bass Tab

Sublime 

"Don't Push" 

Second Hand Smoke 
|-----------|----------|---------|| 
|-7-7-10-10-|-7-7-10-7-|-7-------|| 
|-----------|----------|---7-10--|| 
|-----------|----------|---------|| 
  

|---------|---------|---------|---------|---------| 
|---------|---------|---------|---------|---4-5-7-| 
|---4-5-7-|---4-5-7-|---4-5-7-|---7-5-4-|-5-------| 
|-5-------|-5-------|-5-------|-5-------|---------| 
  
[ Tab from: http://www.guitartabs.cc/tabs/s/sublime/dont_push_btab.html ]
|---------|---------|---------|---------|---------| 
|---4-5-7-|---------|---------|---------|---------| 
|-5-------|---4-5-7-|---4-5-7-|-7---7---|---------| 
|---------|-5-------|-5-------|---5---5-|-1-1-0_0-| 

|---------|---------|---------|---------|| 
|---------|---------|---------|---------|| 
|---4-5-7-|---4-5-7-|-5-4-5-4-|-8-8-7_7-|| 
|-5-------|-5-------|---------|---------|| 
                      FILL 
                    |-------------|-------------|| 
                    |-------------|-3-3-3-------|| 
                    |-------3-3-3-|-------5-5-5-|| 
                    |-5-5-5-------|-------------|| 
  

|---------|---------|| 
|---------|---------|| 
|-3-3-----|-1-1-----|| 
|-----3-3-|-----1-1-|| 
  

|---------|---------|| 
|-----2---|-----0---|| 
|-3-3---3-|-1-1---1-|| 
|---------|---------|| 
  
Comments