Sublime - Doin Time Chords & Tabs

 

Doin Time Chords & Tabs

Sublime Chords & Tabs

Version: 3 Type: Bass Tab 0 ratings
1 star 2 stars 3 stars 4 stars 5 stars
comments

Doin Time Bass Tab

DOIN' TIME by SUBLIME
second hand smoke version
'that cool jazzy one'

intro/slow parts
)----------------------------(
)----------------------------(
)----------3-6-5-------------(
)-3--3-6-3-------x-----------(

play this almost the whole rest of time
)----------------------------(
)----------------------------(
)------------3-6-5-----------(
)-3--3-66-33-------6---------(
[ Tab from: http://www.guitartabs.cc/tabs/s/sublime/doin_time_btab_ver_3.html ]
)----------------------------(
)----------------------------(
)------------3-6-5-----------(
)-3--3-66-33-------6---------(

)----------------------------(
)----------------------------(
)------------3-6-5-----------(
)-3--3-66-33-------6---------(

)----------------------------(
)----------------------------(
)------------3-6-5-----------(
)-3--3-66-33-------6---------(

some walking bass is found at some
parts, improvise.
Comments