Sublime - Date Rape Chords & Tabs

 

Date Rape Chords & Tabs

Sublime Chords & Tabs

Version: 7 Type: Tab 0 ratings
1 star 2 stars 3 stars 4 stars 5 stars
comments

Date Rape Tab

   
Title: Date Rape Solo
Arist: Sublime
Tabbed by Mueychacha
********************

/-slide
p-pull off
b-bend
r-release bend (in the beginning of the solo you're gonna have to hold the 10b12 on B, 

hit the 12 on high E, then release the bend on the B. Sounds harder than it is.)
<>-pinch harmonic
PM-palm mute

E|--------------------------12----------------------------------------------------|
B|--------8--<10>p8--10b12------12r10--8--10p8-----8------------------------------|
G|---7/9----------------------------------------9-----9--7--<9>--7----------------|
D|------------------------------------------------------------------7b9r7---------|
A|-------------------------------------------------------------------------10-----|
E|--------------------------------------------------------------------------------|
[ Tab from: http://www.guitartabs.cc/tabs/s/sublime/date_rape_tab_ver_7.html ]
                     |  PM--------------------PM  |
E|-------------------|----------------------------|-----------------------------|
B|-------------------|----------------------------|--8b10r8--7h8p7--------------|
G|-------------------|-------------------7--9--9--|-----------------7--9--------|
D|--7----------------|-------------7--9-----------|-----------------------------|
A|-----10--7--10--7--|------7--10-----------------|-----------------------------|
E|-------------------|--10------------------------|-----------------------------|

E|------------------------------------------------------------|
B|--8-----10p8------10p8------10p8-----10p8------10p8--10p8---|
G|-----9--------9---------9---------9--------9----------------| 
D|------------------------------------------------------------|
A|------------------------------------------------------------|
E|------------------------------------------------------------|

E|--------7---------7---------7--------7---------7----7------------------------|
B|--10b12----10b12-----10b12-----10b12----10b12----------12r10--8--10p8-----8--|
G|-----------------------------------------------------------------------9-----|
D|-----------------------------------------------------------------------------|
A|-----------------------------------------------------------------------------|
E|-----------------------------------------------------------------------------|

E|-----------------------------------------------|
B|--10b12r10--8----------------------------------|
G|---------------9--7--9--9--9--10--10--10--<9>--|
D|-----------------------------------------------|
A|-----------------------------------------------|
E|-----------------------------------------------|
Comments