Sublime - Date Rape Chords & Tabs

 

Date Rape Chords & Tabs

Sublime Chords & Tabs

Version: 6 Type: Tab 0 ratings
1 star 2 stars 3 stars 4 stars 5 stars
comments

Date Rape Tab

   
song: date rape
    artist: Sublime
        cd: 40oz to freedom  (1993)
 tabbed by: andymandotcom@yahoo.com
    
	normal tuning, i guess....hahaha, clean
	
       key:  (x)   a whole line of one note (played until next number 
is shown)
              ^    bend
              /    slide up
              \    slide down
              pm    palm mute
              h    hammer on
              p    pull off
              ~    tremolo
  intro
e|---------------------------------------------------------------------------------------------------|
b|---------------------------------------------------------------------------------------------------|
g|-9-9-9-10-10-10-9-----9-9-9-10-10-10-9-----9-9-9-10-10-10-9-----9-9-9-10-10-10-9-------------------|
d|-9-9-9-10-10-10-9-----9-9-9-10-10-10-9-----7-7-7-8--8--8--7-----9-9-9-10-10-10-9-----13--12--11-10-|
a|-7-7-7-8--8--8--7-----7-7-7-8--8--8--7--------------------------7-7-7-8--8--8--7-----11--10--9--8--|
E|---------------------------------------------------------------------------------------------------|
      
     (1)                   (2)                   (3)     (4)     (3)
verse                      
e|----7-7-7-7-7-7-7-7-7-7-7-5-5-5-5-5-5-5-5-5-5-5-7-7-7-7-8-8-8-8-7---------------------|
b|----8-8-8-8-8-8-8-8-8-8-8-5-5-5-5-5-5-5-5-5-5-5-7-7-7-7-8-8-8-8-7---------------------|
g|----9-9-9-9-9-9-9-9-9-9-9-5-5-5-5-5-5-5-5-5-5-5-8-8-8-8-9-9-9-9-8---------------------|
d|--------------------------------------------------------------------------------------|
a|--------------------------------------------------------------------------------------|
E|--------------------------------------------------------------------------------------|


 (1) " let me tell you about a girl i know, had a drink about an hour 
ago, (2) sittin' in a corner by herself, (3) in a bar,
in (4) downtown (3) hell."
 (1) " she heard a noise and looked through the door, and saw a man 
she'd never seen before, (2) light skin, light blue eyes,
 (3) a double chin, (4) and a plastic (3) smile."
 
      (1)                                     (2)                 (3)

e|-----7-7-7-7-7-7-7-7-7-7-7-7-7-7-7-7-7-7-7---7-7-7-7-7-7-7-7-7---5-5-5-5-5-5-5-5-5----|
b|-----8-8-8-8-8-8-8-8-8-8-8-8-8-8-8-8-8-8-8---7-7-7-7-7-7-7-7-7---5-5-5-5-5-5-5-5-5----|
g|-----9-9-9-9-9-9-9-9-9-9-9-9-9-9-9-9-9-9-9---8-8-8-8-8-8-8-8-8---5-5-5-5-5-5-5-5-5----|
d|--------------------------------------------------------------------------------------|
a|--------------------------------------------------------------------------------------|
E|--------------------------------------------------------------------------------------|

(1) " her idol raced as he walked through the door, and took an empty 
seat next to her at the bar,(2) ' my brand new car is
 parked right out side,(3) how'd ya like to go for a ride? ' and she 
said, "

     (1)                   (2)                   (3)     (4)     (3)
verse                      
e|----7-7-7-7-7-7-7-7-7-7-7-5-5-5-5-5-5-5-5-5-5-5-7-7-7-7-8-8-8-8-7---------------------|
b|----8-8-8-8-8-8-8-8-8-8-8-5-5-5-5-5-5-5-5-5-5-5-7-7-7-7-8-8-8-8-7---------------------|
g|----9-9-9-9-9-9-9-9-9-9-9-5-5-5-5-5-5-5-5-5-5-5-8-8-8-8-9-9-9-9-8---------------------|
d|--------------------------------------------------------------------------------------|
a|--------------------------------------------------------------------------------------|
E|--------------------------------------------------------------------------------------|

 (1) " 'wait a minute, i have to think.' he said, 'that's fine, may i 
buy you a drink?' (2) one drink turned into three or
four, (3) and then they got into his car, (4) and they drove away some 
(3) farrrrrrrrrrrrrrrrrrr "


    (1)                          (2)  (3) (4)  
e|---12--12--12--12--12--12--12---11------------10-10-10-10-10-10-----------------------|
b|---12--12--12--12--12--12--12---12---7---7----10-10-10-10-10-10--7-7-7-7-7------------|
g|---9---9---9---9---9---9---9----11---7---6----11-11-11-11-11-11--6-6-6-6-6------------|
d|--------------------------------13---8---8----12-12-12-12-12-12--8-8-8-8-8------------|
a|--------------------------------------------------------------------------------------|
E|--------------------------------------------------------------------------------------|

 (1) " 'now babe, the time has come, how'd ya like to have a little 
fun?' and she said,'(2) if we could only (3) be on our 
way,(4) i will not run.' 

    (1)                         (2) (3)(4)      (2)     (3)(2)
e|---7--7--7--7--7--7--7--7------7-7-8--5--------7-7-7-7-8--7---------------------------|
b|---8--8--8--8--8--8--8--8------7-7-8--5--------7-7-7-7-8--7---------------------------|
g|---9--9--9--9--9--9--9--9------8-8-9--5--------8-8-8-8-9--8---------------------------|
d|--------------------------------------------------------------------------------------|
a|--------------------------------------------------------------------------------------|
E|--------------------------------------------------------------------------------------|
[ Tab from: http://www.guitartabs.cc/tabs/s/sublime/date_rape_tab_ver_6.html ]
 (1) " that's when things got out of control, (2) she didn't (3) want 
(4) to,(2) he had (3) his (4) way, (2) she said (3)
'let's (4) go' (2) he said (3) 'no (4) way!' 
 (2) cmon babe, it's your lucky day (3)(2) , (2) shut your mouth we're 
gonna do it my way (3)(2),(2) cmon babe don't be 
 afraid (3)(2), if it wasn't for date rape, i'd never get laid "


solo ( my god, im only 13, this might take a while to write, hahahaha )
e|-----------12----------------------------------------------------------------------------------------|
b|--8-10--10^--10-8h10p8------------------------------------9~-8-9p8--9--11-9--11-9--11-9--11-9--11-9--|
g|7^--------------------9^-7-7------------------------7--9-9--------10-------10----10----10----10----10|
d|--------------------------9-9-7-7\5-5--------5-7-8-9-------------------------------------------------|
a|-----------------------------------7-7-5-6-7---------------------------------------------------------|
E|-----------------------------------------------------------------------------------------------------|
                                         |palm mute        |



e|--7---7---7---7---7---7-------------------------------------------------------------------------|
b|10^-10^-10^-10^-10^-10^---10^10-10-8-10-10-8-10--10-8-10-8--10-8--10-8--------------------------|
g|---------------------------------------9-------9-----9----9-----9-----9---7---9-9-9-10-10-10-9~-|
d|------------------------------------------------------------------------------------------------|
a|------------------------------------------------------------------------------------------------|
E|------------------------------------------------------------------------------------------------|

back to intro, then verse, but play the first part only once.



e|-----------------------------------------------------7-7-8-5-7-7-8-5-7-7-8-5----------|
b|-----------------------------------------------------7-7-8-5-7-7-8-5-7-7-8-5----------|
g|-----------------------------------------------------8-8-9-5-8-8-9-5-8-8-9-5----------|
d|--------------------------------------------------------------------------------------|
a|--------------------------------------------------------------------------------------|
E|--------------------------------------------------------------------------------------|

".......even though he now takes it in the behind."--->

						(1)       (2)(1)      play 3 times
e|-----------------------------------------------7-7-7-7-7-7-7-8--7---------------------|
b|-----------------------------------------------7-7-7-7-7-7-7-8--7---------------------|
g|-----------------------------------------------8-8-8-8-8-7-7-9--8---------------------|
d|--------------------------------------------------------------------------------------|
a|--------------------------------------------------------------------------------------|
E|--------------------------------------------------------------------------------------|

                                "........even though he now takes it in 
the behind, DATE RAPE!"

horn solo ( heheheh, who needs horns?! ) 
e|--------------------------------------------------------------------------------------|
b|---------12------12-------------------------------------------------------------------|
g|-----9-12----9-12-------11-----11------12------12-------------------------------------|
d|--------------------9-13---9-13---10-14---10-14--------12------12---------------------|
a|--------------------------------------------------10-14---10-14-----------------------|
E|--------------------------------------------------------------------------------------|


      (1)           (2)          (3)           play twice
e|-----7-7-7-7-7-7-7-8-8-8-8-8-8--------------------------------------------------------|
b|-----7-7-7-7-7-7-7-8-8-8-8-8-8--12-12-12----------------------------------------------|
g|-----8-8-8-8-8-8-8-9-9-9-9-9-9--12-12-12----------------------------------------------|
d|--------------------------------12-12-12----------------------------------------------|
a|--------------------------------------------------------------------------------------|
E|--------------------------------------------------------------------------------------|
 
  " (1) ba na na na na na,(2) ba da da da da da   (3)"  twice



e|--------------------------------------------------------------------------------------|
b|--------------------------------------------------------------------------------------|
g|--------------------------------------------------------------------------------------|
d|----9---7-----9---7-----9---7-----9---7-----------------------------------------------|
a|----7-9-5-7---7-9-5-7---7-9-5-7---7-9-5-7---------------------------------------------|
E|------7---5-----7---5-----7---5-----7---5---------------------------------------------|

"... she didnt want to, she didnt want to, she didnt want to, she didnt 
want to, take it!"        fourth time add distortion



that's it! wow that took a while... well, use it as you like, i 
know its very very very accurate, and im not just saying that!
hey, cut me some slack, i am only 13 ya know?  
email me what you think about it! rate it good, RIP bradley
	nowell!                                        andymandotcom@yahoo.com
Comments