Sublime - Chica Me Tipo Chords & Tabs

 

Chica Me Tipo Chords & Tabs

Sublime Chords & Tabs

Version: 1 Type: Tab 0 ratings
1 star 2 stars 3 stars 4 stars 5 stars
comments

Chica Me Tipo Tab

~ Normal Tuning ~

Key: / = slide up
     \ = slide down
     ^ = vibrato

Intro

E-------------------------------------------------------
B-------------------------------------------------------
G-------------------------------------------------------
D-------------------2----------------------------------- x3
A------------2------------3-----3--2--0-----------------
E--0------3------------------------------3--2----0------

E---------------------------------|
B---------------------------------|
G---------------------------------|
D-------------------2-------------|
A------------2-------------3------|
E--0------3-----------------------|

Chorus

E--(7)--7-----7-----7-----7-----8----8\7---7---7---7----
B--/8---8-----8-----8-----8-----8----8\8---8---8---8----
G--/9--------------------------------9\8---8---8---9----
D-------------------------------------------------------
A-------------------------------------------------------
E-------------------------------------------------------

                               Bridge
[ Tab from: http://www.guitartabs.cc/tabs/s/sublime/chica_me_tipo_tab.html ]
E-----------------------------|---------------------------
B-----------------------------|--------5----------------5-
G-----------------------------|-------------6-------------
D-----------------------------|------------------7--------
A-----------------------------|---0-----------------------
E---0---0--0--2--2--3--3--4---|---------------------------

Bridge (cont.)

E------------------------------------------------------^4--
B----------------4--------------------4----------------^5--
G-^6-------------------5--------------------5----------^6--
D-^7-----6---------------------6---------------6-------^6--
A--------x---------------------------------------------^4--
E--------x-------------------------------------------------

Bridge (cont.)

E------------------------------|
B--------4---------------------|
G----------------5-------------|
D------------------------6-----|
A------------------------------|
E------------------------------|

Lyrics:

Verse

1. No me importa que seria. Porque todo se quitara. Ay no puedo verlo. Ni en pintura. 
Cuando empecemos, no me dio cuenta. De que luego, tuviera que pagar. Pero, se dice tambien.
Me muera acostarme conti, conti. Pero si se cambie. Ella seria la mia.
2. No me propongo predicar.  Vive y dejar vivar. Pero el amigo es un condon en el bolsillo.
Yo no soy medico, no soy chapocero. Solamentesoy pobre. Y, ya, estoy tan solo.

Chorus

Para ser poseido en propeidad, en propeidad.
Whoa, I cannot do? I will lay down any time with her, with her.


This is ALL right, trust me, because I have the 40 oz. to Freedom Tab book and all of this 
is in it. Have a great time with it.
Comments